Frozen Fire

Frozen Fire
Never (Guitar tab)

never
by frozen fire

standard tuning
intro (clean)
4 times

|--9-9-7-7-5-5-7-7-9-9-7-7-5-5-7-7------------------------|
|-9-9-7-7-5-5-7-7-9-9-7-7-5-5-7-7-------------------------|
|---------------------------------------------------------|
|---------------------------------------------------------|
|---------------------------------------------------------|
|---------------------------------------------------------|

verse 1
heavy distortion
palm muted (6 times)

|---------------------------------------------------------|
|---------------------------------------------------------|
|---------------------------------------------------------|
|--7-7-7-7-5-5-5-5-4-4-4-4-5-5-5-5------------------------|
|--7-7-7-7-5-5-5-5-4-4-4-4-5-5-5-5------------------------|
|--5-5-5-5-3-3-3-3-2-2-2-2-3-3-3-3------------------------|

chorus
heavy distortion
(8 times)

|---------------------------------------------------------|
|---------------------------------------------------------|
|---------------------------------------------------------|
|--5-5-5-5-6-6-6-6-4-4-4-4-4-4-4-4------------------------|
|--5-5-5-5-6-6-6-6-4-4-4-4-4-4-4-4------------------------|
|--3-3-3-3-4-4-4-4-2-2-2-2-2-2-2-2------------------------|

verse 2
heavy distortion palm muted
(6 times)

|---------------------------------------------------------|
|---------------------------------------------------------|
|---------------------------------------------------------|
|--7-7-7-7-5-5-5-5-4-4-4-4-5-5-5-5------------------------|
|--7-7-7-7-5-5-5-5-4-4-4-4-5-5-5-5------------------------|
|--5-5-5-5-3-3-3-3-2-2-2-2-3-3-3-3------------------------|

chorus again
heavy distortion
(8 times)

|---------------------------------------------------------|
|---------------------------------------------------------|
|---------------------------------------------------------|
|--5-5-5-5-6-6-6-6-4-4-4-4-4-4-4-4------------------------|
|--5-5-5-5-6-6-6-6-4-4-4-4-4-4-4-4------------------------|
|--3-3-3-3-4-4-4-4-2-2-2-2-2-2-2-2------------------------|

outro
heavy distortion
(1 time)


|---------------------------------------------------------|
|---------------------------------------------------------|
|---------------------------------------------------------|
|--7-7-7-7-5-5-5-5-4-4-4-4--4-----------------------------|
|--7-7-7-7-5-5-5-5-4-4-4-4--4-let ring--------------------|
|--5-5-5-5-3-3-3-3-2-2-2-2--2-----------------------------|

have fun with this awesome punk song!

OptimusPrime

Toegevoegd door OptimusPrime op zo 01 dec, 2002 9:50 am

Auteur: ?
Componist: ?
Uitgever: ?
Taal: Engels

Reacties

CommonCrawl [Bot]

Volg Muzikum