Frozen Fire

Frozen Fire
Never Knew (Guitar tab)

never knew
by frozen fire
written by tim lindberg
standard tuning
(distortion througout the entire song)

intro
(4 times)

|---------------------------------------------------------|
|---------------------------------------------------------|
|---------------------------------------------------------|
|--5-5--7-7--3-3-3-3--5-5--7-7--3-3-3-3-------------------|
|--x-x--x-x--x-x-x-x--x-x--x-x--x-x-x-x-------------------|
|--3-3--5-5--1-1-1-1--3-3--5-5--1-1-1-1-------------------|

verse 1
palm muted
(6 times)

|---------------------------------------------------------|
|---------------------------------------------------------|
|--8-8-8-8--6-6-6-6---------------------------------------|
|--8-8-8-8--6-6-6-6--10-10-10-10--8-8-8-8-----------------|
|--6-6-6-6--4-4-4-4--10-10-10-10--8-8-8-8-----------------|
|---------------------8--8--8--8--6-6-6-6-----------------|

chorus
(6 times)

|---------------------------------------------------------|
|---------------------------------------------------------|
|----------5-5-5-x---------7-7-7-x------------------------|
|--7-7-7-x-5-5-5-x-5-5-5-x-7-7-7-x------------------------|
|--7-7-7-x-3-3-3-x-5-5-5-x-5-5-5-x------------------------|
|--5-5-5-x---------3-3-3-x--------------------------------|

interlude
(4 times)

|---------------------------------------------------------|
|---------------------------------------------------------|
|---------------------------------------------------------|
|--5-5--7-7--3-3-3-3--5-5--7-7--3-3-3-3-------------------|
|--x-x--x-x--x-x-x-x--x-x--x-x--x-x-x-x-------------------|
|--3-3--5-5--1-1-1-1--3-3--5-5--1-1-1-1-------------------|

verse 2
not muted
(6 times)

|---------------------------------------------------------|
|---------------------------------------------------------|
|--8-8-8-8--6-6-6-6---------------------------------------|
|--8-8-8-8--6-6-6-6--10-10-10-10--8-8-8-8-----------------|
|--6-6-6-6--4-4-4-4--10-10-10-10--8-8-8-8-----------------|
|---------------------8--8--8--8--6-6-6-6-----------------|

chorus/outro
(7 times)
{let last note ring on 7th time}

|---------------------------------------------------------|
|---------------------------------------------------------|
|----------5-5-5-x---------7-7-7-x------------------------|
|--7-7-7-x-5-5-5-x-5-5-5-x-7-7-7-x------------------------|
|--7-7-7-x-3-3-3-x-5-5-5-x-5-5-5-x------------------------|
|--5-5-5-x---------3-3-3-x--------------------------------|

Have fun!!!

OptimusPrime

Toegevoegd door OptimusPrime op zo 01 dec, 2002 9:50 am

Auteur: ?
Componist: ?
Uitgever: ?
Taal: Engels

Reacties

CommonCrawl [Bot]

Volg Muzikum