Frying Rats

Frying Rats
Chinese Temples On Fire (Guitar tab)

Song Title: Chinese Temples On Fire (Instrumental)
Artist: Frying Rats

Heavy Distortion w/Wah FN Wah Pedal

6/4 time

e|---------x---x--
B|---------x---x--
G|-------4-x-5-x--
D|-------4-x-5-x--
A|-------2-x-3-x--
E|-0-0-0---x---x-- X 5 Riff 1

e|------------------
B|------------------
G|-4------3-----5-4-
D|-4----5-----5---4-
A|-2--3-----3-----2-
E|------------------ X5 Riff 2

High E Solo:
5-7-6-4-5-7-8-6-5-7-8-9-10--9--12~~~~~~

Then play Riffs 1&2 5X each (as before) and fade out
________
Etushi Mklovnic
(Now, that's "Goodnight" in Banjrolic Language)

OptimusPrime

Toegevoegd door OptimusPrime op zo 01 dec, 2002 9:50 am

Auteur: ?
Componist: ?
Uitgever: ?
Taal: Engels

Reacties

CommonCrawl [Bot]

Volg Muzikum