Funbox

Funbox
No Directions For Use (Bass tab)

------------------------------------------------------------------
NO DIRECTIONS FOR USE - Funbox
------------------------------------------------------------------

By: Dave Wilson (nougeypooge@hotmail.com for requests)

Intro (x4)
G|---------------------------------------------------------------|
D|---------6-6-6-6-----------------------------------------------|
A|7-7-7-7-----------4-4-4-4--------------------------------------|
E|---------------------------------------------------------------|

Verse 1 (x2)
G|---------------------------------------------------------------|
D|--------6-9-6-----------7--------------------------------------|
A|7-7-7-7------7-------------------------------------------------|
E|----------------9-9-9-9----7-7-7-7-7-7-7-7--5-5-5-5-5-5-5-5----|

Verse 2
G|---------------------------------------------------------------|
D|--------6-9-6----------6-7-6-7---------------------------------|
A|7-7-7-7------7----------------7--------------------------------|
E|----------------9-9-9-9--------7-7-7-7-7-7-7-7--5-5-5-5-5-5-5-5|
Verse 1

Chorus (x2)
G|---------------------------------------------------------------|
D|---------------------------------------------------------------|
A|7-7-7-7-----------4-4-4-4--4-4-4-4-----------------------------|
E|---------4-4-4-4-----------------------------------------------|

G|---------------------------------------------------------------|
D|---------------------------------------------------------------|
A|7-7-7-7-----------4-4-4-4--------------------------------------|
E|---------4-4-4-4-----------0-0-0-0-----------------------------|
Verse 1 (x4)
Verse 2
Verse 1
Chorus (x2)
Verse (x4)

OptimusPrime

Toegevoegd door OptimusPrime op zo 01 dec, 2002 9:48 am

Auteur: ?
Componist: ?
Uitgever: ?

Reacties

CommonCrawl [Bot]

Volg Muzikum