Fusion

Fusion
Naked Without You (Bass tab)

INTRO:
G:---------------|
D:---------------|
A:-5-5-----7-7---|
E:-----5-5----3-3|

MAIN RIFF:
G:---------------------------------------|
D:---------------------------------------|
A:-5-5-5-5-5-----------7-7-7-7-7---------|
G:-----------5-5-5-5-5-----------3-3-2-1-|

VERSE:
G:-----------------------------------------|
D:-----------------------------------------|
A:-----------------------------------------|
E:-5-5-5-5-5-5-3-3-3-3-3-3-2-2-2-2-2-0-0-0-|

CHORUS:
G:---------------------------------------|
D:---------------------------------------|
A:-5-5-5-5-5-----------7-7-7-7-7---------|
E:-----------5-5-5-5-5-----------3-3-2-1-|

Song Order:
Intro x8
Main Riff x3
Verse x4
Chorus x6

OptimusPrime

Toegevoegd door OptimusPrime op zo 01 dec, 2002 9:48 am

Auteur: ?
Componist: ?
Uitgever: ?

Reacties

CommonCrawl [Bot]

Volg Muzikum