Electro Susan

Electro Susan
Useless (Guitar tab)

================================================================================
Title: Useless Author: Susan Electro
Copyright: 2002 Album: Susan Electro
Category: Blank Tab Sheets Tempo: fast and slow
Tabber: micah mccoy Key of: A Tuning: e B G D A E
Notes:
=========================================================================
+ + + + + + + + + + + + + + + +
e :-----------------|-----------------|-----------------|-----------------|
B :-----------------|-----------------|-----------------|-----------------|
G :7-7--------------|7-7--------------|7-7-7------------|-----------------|
D :7-7-7-7-7-7------|7-7-7-7-7-7------|7-7-7-7-7-7-8-8-8|-----------------|
A :5-5-7-7-7-7------|5-5-7-7-7-7------|5-5-5-7-7-7-8-8-8|-----------------|
E :----5-5-5-5------|----5-5-5-5------|------5-5-5-6-6-6|-----------------|
play slow-repeat once

chorus
+ + + + + + + + + + + + + + + +
e :-----------------|-----------------|-----------------|-----------------|
B :-----------------|-----------------|-----------------|-----------------|
G :7777-------------|7777-------------|7-7-7------------|7-7-7------------|
D :77777777555555555|77777777555555555|7-7-7-7-7-7-7-7--|7-7-7-5-5-5-5-5--|
A :55557777555555555|55557777555555555|5-5-5-7-7-7-7-7--|5-5-5-5-5-5-5-5--|
E :----5555333333333|----5555333333333|------5-5-5-5-5--|------3-3-3-3-3--|
hammer on hammer on

+ + + + + + + + + + + + + + + +
e :-----------------|-----------------|-----------------|-----------------|
B :-----------------|-----------------|-----------------|-----------------|
G :7-7-7-7-7-7-7-7--|-----------------|-----------------|-----------------|
D :7-7-7-7-7-7-7-7-7|7-7-7-7-7-7-8-8-8|8-8-8-8-8-8-8----|-----------------|
A :5-5-5-5-5-5-5-5-7|7-7-7-7-7-7-8-8-8|8-8-8-8-8-8-8----|-----------------|
E :----------------5|5-5-5-5-5-5-6-6-6|6-6-6-6-6-6-6----|-----------------|

OptimusPrime

Toegevoegd door OptimusPrime op zo 01 dec, 2002 9:43 am

Auteur: ?
Componist: ?
Uitgever: ?
Taal: Engels

Reacties

CommonCrawl [Bot]

Volg Muzikum