Eskimo Toccata

Eskimo Toccata
Untitled (Bass tab)

UNTITLED
BY ESKIMO TOCCATA (GLYNN)
TABBED BY BRYSON GORE

INTRO/CHORUS X3
|-------------------------------------|
|-------------------------------------|
|---------3-3-2-3--5-5-0--7-7-5--2-0--|
|-3-3-2-3-----------------------------|

|-------------------------------------------|
|-------------------------------------------|
|-9-9-9-9-9-9-9-9-9-12-12-12-12-12-12-12-12-|
|-------------------------------------------|

VERSE
|-----------------------------------|
|-----------------------------------|
|-3-3-3-3-3-3-3-3-2-2-2-2---------3-|
|-------------------------0-0-0-2---|

BRIDGE
|----------------9-10----------------------------9-10----------|
|-7-7-9-7--7-7-9------------------7-7-9-7--7-7-9---------------|
|-----------------------5----2--------------------------2----3-|
|--------------------------------------------------------------|

OptimusPrime

Toegevoegd door OptimusPrime op zo 01 dec, 2002 9:39 am

Auteur: ?
Componist: ?
Uitgever: ?
Taal: Engels

Reacties

CommonCrawl [Bot]

Volg Muzikum