Eskimo Toccata

Eskimo Toccata
Revolution T-shirt (Bass tab)

REVOLUTION T-SHIRT
ESKIMO TOCCATA (GLYNN)
TABBED BY BRYSON GORE

MAIN RIFF
|--------------------------------|
|--------------------------------|
|-----3------3-2------3--0-0-4-5-|
|-0-0----0-0------0-0------------|

PRE CHORUS
|-------------------------------------------------|
|-------------------------------------------------|
|-------------------------------------------------|
|-4-4-4-4-4-4-2-2-2-2-2-2-7-7-7-7-7-7-4-4-4-4-4-4-|

CHORUS
|-----------------------------------------------------------|
|-----------------------------------------------------------|
|---------5-5-5-5-------------------------5-5-5-5---------2-|
|-5-5-5-5---------5-5-5-5-7-7-7-7-5-5-5-5---------5-5-5-5---|

OptimusPrime

Toegevoegd door OptimusPrime op zo 01 dec, 2002 9:39 am

Auteur: ?
Componist: ?
Uitgever: ?

Reacties

CommonCrawl [Bot]

Volg Muzikum