Bohemia Suburbana

Bohemia Suburbana
El Vaso (Guitar chord)

*************************************************
* Bohemia Suburbana *
* El vaso *
* www.rockchapin.com *
*************************************************



e|-----0-------------0-0h2-0-------0---------0-|
B|-------0---------1---------1-------0-------2-|
G|---1-----1-----2---------------1-----1-----2-|
D|-----------2---------------------------2---2-|
A|-------------0---------------------------2-0-|
E|-0---------------------------0-------------0-|

e|-------------0-----------0---------0-|
B|-5-5-4-----2-----2---------0-------2-|
G|---------2-----2---2---1-----1-----2-|
D|-------------------------------2---2-|
A|-4-4-2-0-------------------------2-0-|
E|---------------------0-------------0-|

e|-------------0-----------0---------0-|
B|-5-5-4-----2-----2---------0-------2-|
G|---------2-----2---2---1-----1-----2-|
D|-------------------------------2---2-|
A|-4-4-2-0-------------------------2-0-|
E|---------------------0-------------0-|

e|-----0-------------0-0h2-0-------0---------0-|
B|-------0---------1---------1-------0-------2-|
G|---1-----1-----2---------------1-----1-----2-|
D|-----------2---------------------------2---2-|
A|-------------0---------------------------2-0-|
E|-0---------------------------0-------------0-|
Que bello es cuando lloras por una mujer que a�oras.

e|-------------0-----------0---------0-|
B|-5-5-4-----2-----2---------0-------2-|
G|---------2-----2---2---1-----1-----2-|
D|-------------------------------2---2-|
A|-4-4-2-0-------------------------2-0-|
E|---------------------0-------------0-|
Que bello es cuando duermes y empiezas a so�ar,
que bello es cuando duermes y encuentras libertad.

e|-----0-------------0-0h2-0-------0---------0-|
B|-------0---------1---------1-------0-------2-|
G|---1-----1-----2---------------1-----1-----2-|
D|-----------2---------------------------2---2-|
A|-------------0---------------------------2-0-|
E|-0---------------------------0-------------0-|

e|-----0-------------0-0h2-0-------0---------0-|
B|-------0---------1---------1-------0-------2-|
G|---1-----1-----2---------------1-----1-----2-|
D|-----------2---------------------------2---2-|
A|-------------0---------------------------2-0-|
E|-0---------------------------0-------------0-|
Talvez todo fue un enga�o de un extra�o comenzar.

e|-------------0-----------0---------0-|
B|-5-5-4-----2-----2---------0-------2-|
G|---------2-----2---2---1-----1-----2-|
D|-------------------------------2---2-|
A|-4-4-2-0-------------------------2-0-|
E|---------------------0-------------0-|
Solo quer�a amarla y verla despegar,
Solo quer�a amarla pero ella ya no est�.

e|-----0-------------0-0h2-0-------0---------0-|
B|-------0---------1---------1-------0-------2-|
G|---1-----1-----2---------------1-----1-----2-|
D|-----------2---------------------------2---2-|
A|-------------0---------------------------2-0-|
E|-0---------------------------0-------------0-|
Solo queria amarla pero ella ya no est�

E
Ella ya no est�.

e|-X-X-X-5nh-X-X-X-5nh-X-X-X-5nh-X-X-X-5nh-|
B|-X-X-X-5nh-X-X-X-5nh-X-X-X-5nh-X-X-X-5nh-|
G|-1-1-1-5nh-X-X-X-5nh-X-X-X-5nh-X-X-X-5nh-|
D|-2-2-2-5nh-4-4-4-5nh-5-5-5-5nh-7-7-7-5nh-|
A|-2-2-2-5nh-4-4-4-5nh-5-5-5-5nh-7-7-7-5nh-|
E|-0-0-0-5nh-2-2-2-5nh-3-3-3-5nh-5-5-5-5nh-|
Ya no s�
que puedo hacer
como te puedo hacer entender;
acaso no
empezamos juntos
a caminar hacia el mismo lugar.

e|-----0-------------0-0h2-0-------0---------0-----|
B|-------0---------1---------1-------0-------2-----|
G|---1-----1-----2---------------1-----1-----2-----|
D|-----------2---------------------------2---2-12nh|
A|-------------0---------------------------2-0-12nh|
E|-0---------------------------0-------------0-12nh|

e|--------------------------------------|
B|-9-9/5-5-5/9---9h10-9-----9-----------|
G|-9-9/5-5-5/9----------9---9-----------|
D|-9-9/5-5-5/9-9----------9-9-12nh------|
A|------------------------------12nh----|
E|---------------------------------12nh-|
Que triste es dormir y no so�ar
abrir los ojos en soledad
amante ego�sta que es tu realidad.

E
Ella ya no est�.

e|-X-X-X-5nh-X-X-X-5nh-X-X-X-5nh-X-X-X-5nh-|
B|-X-X-X-5nh-X-X-X-5nh-X-X-X-5nh-X-X-X-5nh-|
G|-1-1-1-5nh-X-X-X-5nh-X-X-X-5nh-X-X-X-5nh-|
D|-2-2-2-5nh-4-4-4-5nh-5-5-5-5nh-7-7-7-5nh-|
A|-2-2-2-5nh-4-4-4-5nh-5-5-5-5nh-7-7-7-5nh-|
E|-0-0-0-5nh-2-2-2-5nh-3-3-3-5nh-5-5-5-5nh-|
Ya no s�
que puedo hacer
como te puedo hacer entender;
acaso no
empezamos juntos
a caminar hacia el mismo lugar.



====================================================
Tabbed by
Viuda Negra
viudanegra18@hotmail.com

OptimusPrime

Toegevoegd door OptimusPrime op zo 01 dec, 2002 8:32 am

Auteur: ?
Componist: ?
Uitgever: ?
Taal: Spaans

Reacties

CommonCrawl [Bot]

Volg Muzikum