Bohemia Suburbana

Bohemia Suburbana
Peces E Iguanas (Guitar tab)

---PECES E IGUANAS---
(BOHEMIA SUBURBANA)

(INTRO)
G,D2�,Em,C

( BAJO DE LA INTRO)
e|-------------------------------------------------------------------
B|-------------------------------------------------------------------
G|-------------------------------------------------------------------
D|-------------------7-7-5-7-5---------------------------------------
A|-----5-5-3-2-----------------7-7-10-9-7----------------------------
E|-3-3---------3-5-5----------------------7-8-8-8-8-8-8-8-8-8--------(rapido despues de las 2 primeras veces)


EN SITUACIONES COMO ESTA ]
DE NADA SIRVE UNA PROMESA ]
Y ES MUCHO PENSAR ]----
ANTES DE ACTUAR ]----TODA ESTA PARTE VA CON LA INTRO
UN DIA UN LOCO MIRO POR LA VENTANA ]----
VIO COMO LA LLUVIA CAIA DE LIVIANA ]


G D2� Em C
TAN LIVIANA,QUE PENSO,QUE MA�ANA LE IRIA MEJOR
G D2� Em C
Y ASI ESPERO DE NUEVO EL SOL

COMO SABER SI ES PEZ O IGUANA
SI NO PRUEBA NI TIERRA NI AGUA
NI PECES NI IGUANAS
NI TIERRA NI AGUA

(SOLO) [ G,D2�,Em,C ]
e|-------------------------------------------------------------------------------------------------
B|-5/8-8-8-8-7-7-7-5-5-5-3-3-3-1-1-1-0-0-0----------------8-8-8-8-7-7-7-5-5-5-3-3-3-1-1-1-0-0-0----
G|-----------------------------------------2-2-2-0-0-0---------------------------------------------
D|-------------------------------------------------------------------------------------------------
A|-------------------------------------------------------------------------------------------------
E|-------------------------------------------------------------------------------------------------


|-------------------------------------------------------------------------------------------------
|---------------------------------------------------1-0--1-0--1-0-1-0---3-1-3-3-3/5-3-5-----------
|-2-2-2-0--2-0--2-0--2-0--2-0--4-2--4-2--4-2--4-0-------------------------------------------------
|-------------------------------------------------------------------------------------------------
|-------------------------------------------------------------------------------------------------
|-------------------------------------------------------------------------------------------------

|-2-0--2-0--2-0--2-0---3-2--3-2--3-2--3-0--5-3--5-3--5-3--5-0--7-5-3-2-3-2-3---||
|------------------------------------------------------------------------------||
|------------------------------------------------------------------------------||
|------------------------------------------------------------------------------||
|------------------------------------------------------------------------------||
|------------------------------------------------------------------------------||

LA CAMA REVUELTA ESTABA
DESPUES DE UNA HORA DE ACCION
Y LUEGO EN LA SALA EL TELEVISOR
QUE NO CUENTA HISTORIAS DE AMOR
COMO SABER SI ES PEZ O IGUANA
SI NO PRUEBA,NI TIERRA NI AGUA
NI PECES E IGUANAS
NI TIERRA NI AGUA

(INTRO)

(SOLO)

LA CAMA REVUELTA ESTABA
DESPUES DE UNA HORA DE ACCION
Y LUEGO EN LA SALA EL TELEVISOR
QUE NO CUENTA HISTORIAS DE AMOR
COMO SABER SI ES PEZ O IGUANA
SI NO PRUEBA,NI TIERRA NI AGUA
NI PECES E IGUANAS
NI TIERRA NI AGUA UUUH,UHHH....

OptimusPrime

Toegevoegd door OptimusPrime op zo 01 dec, 2002 8:32 am

Auteur: ?
Componist: ?
Uitgever: ?
Taal: Spaans

Reacties

CommonCrawl [Bot]

Volg Muzikum