Antimobilize
M 16 (Guitar tab)

This Song Sounds Better W/ A Capo On The 3rd Fret...

Intro And Chorus: X4
---C----------------------------------------------------
---A----------------------------------------------------
---P----------------------------------------------------
---O----------------------------------------------------
---|---6-6-6-6-6-6-6-6----x---11-11-11-11-11-11-11-11---
---|---4-4-4-4-4-4-4-4----x---9--9--9--9--9--9--9--9----

---------------------------------------------------------------------
---------------------------------------------------------------------
---------------------------------------------------------------------
---------------------------------------------------------------------
--14-14-14-14-14-14-14-14-14-14-14-14-14-14-------------------------
--12-12-12-12-12-12-12-12-12-12-12-12-12-12--------------------------





Then Play This...
---C---------------------------------------------------------------
---A---------------------------------------------------------------
---P---------------------------------------------------------------
---O---------------------------------------------------------------
---|---6666666---x---11-11-11-11-11-11-11---14-14-14-14-14-14-14-14
---|---6666666---x---11-11-11-11-11-11-11---14-14-14-14-14-14-14-14

---------------------------------------------------------------------
---------------------------------------------------------------------
---------------------------------------------------------------------
---------------------------------------------------------------------
--14-14-14-14-14-14--------------------------------------------------
--12-12-12-12-12-12--------------------------------------------------

After that part you play the whole intro/chorus part...

Have Fun :)

Copyrights
Auteur: ?
Componist: ?
Uitgever: ?
Meer details
Taal: Engels

Reacties

CommonCrawl [Bot]

Volg Muzikum