Team Sleep

Team Sleep
Iceache Demo (Guitar tab)

this is prolly my favourite laid back deftones song. i don't know
what tuning this is played in but i tabbed this for drop c

intro note
D-------------------------------------------------
A-------------------------------------12----------
F-------------------------------------------------
C-------------------------------------------------
G-------------------------------------------------
C-------------------------------------------------

D-------------------------------------------------
A-------------------------------------------------
F-11-12-12-12-12-12-12-12-12-11-11-11-11-11-11-11-
C-------------------------------------------------
G-------------------------------------------------
C-------------------------------------------------

D-------------------------------------------------
A-------------------------------------------------
F-11-12-12-12-12-12-12-12-12-11-11-11-9-----------
C-------------------------------------------------
G-------------------------------------------------
C-------------------------------------------------

D-------------------------------------------------
A-------------------------------------------------
F-12----12----12-12-12-12-12-11-11-11-11-11-11-11-
C-------------------------------------------------
G-------------------------------------------------
C-------------------------------------------------

D-------------------------------------------------
A-------------------------------------12----------
F-11-12-12-12-12-12-12-12-12-11-11-11-------11----
C-------------------------------------------------
G-------------------------------------------------
C-------------------------------------------------

thats pretty much most of the song with some stops and starts

this is the distorted chord that comes in with 'i sould have known you were wrong'
D---
A---
F---
C-4-
G-4-
C-4-

OptimusPrime

Toegevoegd door OptimusPrime op do 14 aug, 2003 7:18 pm

Auteur: ?
Componist: ?
Uitgever: ?
Taal: Engels

Reacties

CommonCrawl [Bot]

Volg Muzikum