The Electric Soft Parade

The Electric Soft Parade
Why Do You Try So Hard To Hate Me (Guitar tab)

Tabber: Francis D. (Soulgolem)
e-mail: Soulgolem@yahoo.com (or the one in my profile)

Electric Soft Parade - Why Do You Try So Hard To Hate Me?


*Verses*: (x4)

|----------|----------|---------|
|----------|----------|---------|
|----------|----------|---------|
|---9--9---|--10--10--|--14-14--|
|---7--7---|---7---7--|--12-12--|
|---0--0---|---8---8--|---------|

*Pre-Chorus*:

PM.......
|---------|---------|
|---8-8---|---------|
|---7-7---|---4-4---|
|---5-5---|---4-4---|
|---------|---2-2---|
|---------|---------|

*Chorus*: (x2)

|---------|---------|---------|
|---------|---------|---------|
|---9-9---|---5-5---|---4-4---|
|---9-9---|---5-5---|---4-4---|
|---7-7---|---3-3---|---2-2---|
|---------|---------|---------|

(2nd Chorus only) (x2)

|---------|---------|---------|
|--17-17--|--13-13--|--12-12--|
|--16-16--|--12-12--|--11-11--|
|---------|---------|---------|
|---------|---------|---------|
|---------|---------|---------|

Then hold with feedback

B|--16bbbbb--------------------|


*Bridge*: (Piano part)


G -- D7* - Bb -- C7
G -- D7* - Bb -- C7
G* - C --- G* -- C
G* - Cadd9 ----- G


*Chorus* again.

G D7* Bb C7 G* Cadd9
|--3--|--6--|--6--|--0--|--2--|--3--|
|--3--|--7--|--6--|--1--|--3--|--1--|
|--4--|--5--|--7--|--3--|--0--|--0--|
|--5--|--7--|--8--|--2--|--0--|--2--|
|--5--|--5--|--8--|--3--|--x--|--3--|
|--3--|-----|--6--|-----|--3--|-----|


Lyrics:

Sometimes, I wake up in the sun
Everyday, it burns me like no-one
Could ever be like me
Everyone has faltered now we're gone

You're so bitter, I don't get it
Why do you try so hard to hate me?
You're so bitter, I don't get it
Why do you try so hard?

Sometimes, I wake up in the sun
Everyday, it burns me like no-one
Could ever be like me
Everyone has faltered now we're gone

You're so bitter, I don't get it
Why do you try so hard to hate me?
You're so bitter, I don't get it
Why do you try so hard to hate me?
You're so bitter, I don't get it
Why do you try so hard to hate me?
You're so bitter, I don't get it
Why do you try so hard?

So take your songs tonight
I don't feel the hurt inside
I am bruised and I am broken
And don't I feel the hurt inside
I am taking my exit now
I am making my exit now
And I'm not sure where I'll be

You're so bitter, I don't get it
Why do you try so hard to hate me?
You're so bitter, I don't get it
Why do you try so hard to hate me?
You're so bitter, I don't get it
Why do you try so hard to hate me?
You're so bitter, I don't get it
Why do you try so hard?

OptimusPrime

Toegevoegd door OptimusPrime op do 14 aug, 2003 4:43 pm

Auteur: ?
Componist: ?
Uitgever: ?
Taal: Engels

Reacties

CommonCrawl [Bot]

Volg Muzikum