Fu Manchu

Fu Manchu
Squash That Fly (Bass tab)

*Drop D Tuning*

G -10-8----------------------
D ------10-8-----------------
A ------------10-8-----------
D ------------------11-9-----

G ---------------------------------------------------------------
D ---------------------------------------------------------------
A ----------------------------------1-1-------1-1---3-3-------3-3
D -0-0-0-0-0-0-0-0-0-0-0-0-0-0-0-0-------3-3-------------5-5-----

Chorus:

OptimusPrime

Toegevoegd door OptimusPrime op zo 01 dec, 2002 9:50 am

Auteur: ?
Componist: ?
Uitgever: ?

Reacties

CommonCrawl [Bot]

Volg Muzikum