Misc
My Life Is Fading (Bass tab)

This is a made up song that I don't play any more, so you can take it. I just play it to show people how good I am. It is very hard. Keep practicing it if you wanna' put it in a song or something.

1st part (4x)
G---7-10-9-6-15-14-13-12-11---7-10-9-6-15-14-13-12-11------------------------|
D-------------------------------------------------------5/6-6-5/6-77-5/6-888-|
A----------------------------------------------------------------------------|
E-0~------------------------0~------------------------4----------------------|

2nd part (4x)
G-------------------------------------------7h10-10-10-10\5h8-8-8-8\3333-|
D-----------------------5-------------------7h10-10-10-10\5h8-8-8-8\3333-|
A---10-10-10-10\1-1-3-5--------------------------------------------------|
E-4-----------------------0--00-----0--0--0~-----------------------------|

3rd part (2x)
G---------------------|
D---------------------|
A---------------------|
E-8/10-10-10-9-8-7\0~-|

4th part (4x)
G---------------------------------------------------------10-10-10-10-10-10-10-10-|
D-10-10-10-10-10-10-10-10---------------------------------------------------------|
A-----------------------------------------4-4-4-4-4-4-4-4-------------------------|
E-------------------------2-2-2-2-2-2-2-2-----------------------------------------|

5th part (4x)
G-------------------------------------------------8-8-8-8-8-8-8-8-|
D-8-8-8-8-8-8-8-8-------------------------------------------------|
A---------------------------------2-2-2-2-2-2-2-2-----------------|
E-----------------0-0-0-0-0-0-0-0---------------------------------|

6th part (2x)
G-------------------0-2-4-6-8-!10!-|
D-------------0-2-4----------------|
A-------0-2-4----------------------|
E-0-2-4----------------------------|

Okay, that was the song. I know it's sorta' hard, but keep trying if you wanna' go famous from this. The last part "6th part", you should put last cuz' of that "!10!" thingy. Well, have fun!!

Copyrights
Auteur: ?
Componist: ?
Uitgever: ?
Meer details
Taal: Engels

Reacties

CommonCrawl [Bot]

Volg Muzikum