Frenzal Rhomb

Frenzal Rhomb
Coming Home (Guitar tab)

Author/Artist: Frenzal Rhomb
Title: Coming Home
Album: Shut Your Mouth
Transcribed by: Luke Lundberg
Email: kane_72@hotmail.com

my guitar teacher helped me out. tune all strings down half a step. i'll only include the chords, work out the rythm with the cd. and q's or comments email me :-)

------------------------------------------------------------------------------
------------------------------------------------------------------------------
-9-------6------------4-------4-----6-----------4-----------------------------
-9-9---6-6---4--7--2--4----2--4--6--6--4--7--2--4-----------------------------
-7-9---6-4---4--7--2--2----2--2--6--4--4--7--2--2-----------------------------
---7---4-----2--5--0-------0-----4-----2--5--0--------------------------------
i need to cut my finger nails..

------------------------------------------------------------------------------
------------------------------------------------------------------------------
-6--------4----6--------4--------4-----6--------------------------------------
-6--7--4--4----6--7--4--4--7--2--4--6--6--4--8--2-----------------------------
-4--7--4--2----4--7--4--2--7--2--2--6--4--4--8--2-----------------------------
----5--2----------5--2-----5--0-----4-----2--6--0-----------------------------
i had a dream that i learnt to write...

------------------------------------------------------------------------------
------------------------------------------------------------------------------
-6------------6------------6--------------------------------------------------
-6--7--2--6---6--7--2--6---6--7--2--6--7--9-----------------------------------
-4--7--2--6---4--7--2--6---4--7--2--6--7--9-----------------------------------
----5--0--4------5--0--4------5--0--4--5--7-----------------------------------
the verse is all the same. the solo, rythem part. play p.m in sum parts.

------------------------------------------------------------------------------
------5-4---------------------------------------------------------------------
-----------6-5/1\6------------------------------------------------------------
---6--------------------------------------------------------------------------
-7----------------------------------------------------------------------------
------------------------------------------------------------------------------
lead solo. not exact, fuck around wit notes and u can come up wit sumptin.

------------------------------------------------------------------------------
------------------------------------------------------------------------------
------------------------------------------------------------------------------
------------------------------------------------------------------------------
------------------------------------------------------------------------------
------------------------------------------------------------------------------
bak to intro-verse which is the intro but distorted. that's all!

OptimusPrime

Toegevoegd door OptimusPrime op zo 01 dec, 2002 9:50 am

Auteur: ?
Componist: ?
Uitgever: ?
Taal: Engels

Reacties

CommonCrawl [Bot]

Volg Muzikum