Frenzal Rhomb

Frenzal Rhomb
You Are Not My Friend (Guitar tab)

FRENZAL RHOMB- YOU ARE NOT MY FRIEND

This is one of my favourite songs
by frenzal rhomb- any comments or Questions
contact me at: adam_hazell@hotmail.com
album: A mans not a camel

e--------------------------------------------------------------------------------------------
B-------------------------------------------------------------------------------------------
G-------7-------------------7------8-----10-----8-------7--------------------------------
D---8------8---7---8---8------8-----8-------8------8------8----------------------------
A------------------------------------------------------------------------------------------
E-------------------------------------------------------------------------------------------

e--------------------------------------------------------------------------------------------
B-------------------------------------------------------------------------------------------
G---8-----7--------------------------------------------------------------------------------
D------8------8---7--8-----8/3---3---1---0----------------------------------------------
A------------------------------------------------3------------------------------------------
E-------------------------------------------------------------------------------------------

Verse: Bb D D# strum slowly
Chorus: Bb D D# F#^ A/ Bb

OptimusPrime

Toegevoegd door OptimusPrime op zo 01 dec, 2002 9:50 am

Auteur: ?
Componist: ?
Uitgever: ?
Taal: Engels

Reacties

CommonCrawl [Bot]

Volg Muzikum