Frenzal Rhomb

Frenzal Rhomb
I Know Why Dinosaurs Became Extinct (Guitar tab)

I Know Why Dinosaurs Became Extinct...
F R E N Z A L R H O M B
Tabbed By Aaron Bridgeman (rokken@sicness.net)

http://bogans.arecool.net

INTRO: (piano arranged for guitar)
e|----------------4-|
B|-------------4----|
G|----------5-------|
D|-------6----------|
A|----6-------------|
E|-4----------------|

OTHER SECTION:
e|---------------------------------------------------------------------------|
B|---------------------------------------------------------------------------|
G|---------------------------------------------------------------------------|
D|-6666666666666666666666666666666666666666666666666666666666666666666666666-|
A|-6666666666666666666666666666666666666666666666666666666666666666666666666-|
E|-4444444444444444444444444444444444444444444444444444444444444444444444444-|
iknowwhydinosaursbecameextinctitsbecausetheylearnedhowtosucktheirowncocks

OptimusPrime

Toegevoegd door OptimusPrime op zo 01 dec, 2002 9:50 am

Auteur: ?
Componist: ?
Uitgever: ?
Taal: Engels

Reacties

CommonCrawl [Bot]

Volg Muzikum