Eraserheads

Eraserheads
Huwag Mo Nang Itanong Ver 2 (Guitar tab)

HEY GUYS! I Just Revised The Riff On The Chorus Part! BALIKTAD EH! HEHEHE
huwag mo nang itanong
by eraserheads
tabbed by jobo kapunan a.k.a jobski
e-mail: jobo@bul.info.com.ph




VERSE BASS TABS

INTRO: drums comes in then play the rhythms guitar with the bass



e|-----------------------------------------------|
B|-----------------------------------------------|
G|-----------------------------------------------| 1
D|-----------------------------------------------|
A|-------3-2-3---------3-2-3s7---5h6p3-----------|
E|----3h5-----------3h5--------------------------|

e|-----------------------------------------------|
B|-----------------------------------------------|
G|-----------------------------------------------| 2
D|-----------------------------------------------|
A|-------3-2s7---------3-2-3s7---5h6p3-----------|
E|----3h5-----------3h5--------------------------|


e|-----------------------------------------------|
B|-----------------------------------------------|
G|-----------------------------------------------| 3
D|-----------------------------------------------|
A|-------3-2-3-5-7-5-3---------------------------|
E|----3h5----------------------------------------|


THE PRE-CHORUS: pre-chorus 1 and 2

e|-----------------------------------------------|
B|-----------------------------------------------|
G|-----------------------------------------------| 4
D|-----------------------------------------------|
A|--------2-2s7-----7-5-4h5p3--------------------|
E|----3-3----------------------------------------|


e|-----------------------------------------------|
B|-----------------------------------------------|
G|-----------------------------------------------| 5
D|---------------5-----------3---3-3h5-3---------|
A|----3h5p3--5-7---7-----3h5---5-----------------|
E|-----------------------------------------------|




tabs 1, 2, and 3 should be played two times on the verses.

h = hammer to the said fret
p = pull off to the said fret
s = slide to the said fret

NOW FOR THE CHORUS:

there no much bass rhythms here, just prolong the bass' sound to produce a nice lyrical effect

e|-----------------------------------------------|
B|-----------------------------------------------|
G|-----------------------------------------------|
D|-----------------------------------------------|
A|-------------3l--5-3---------------------------|
E|-----3l--5l----------5-3-----------------------|


AND FOR THE RHYTHM GUITARS... the filler after the "huwag mo nang itanong sa akin"
this gives a very nice effect here

e|---6-5-6---------------------------------------|
B|-----------------------------------------------|
G|-----------------------------------------------|
D|-----------------------------------------------|
A|-----------------------------------------------|
E|-----------------------------------------------|


AND THEN VERSE #2

AND THEN THE PRE-CHORUS #2

AND THEN THE CHORUS


"l" means prolong or delay the bass sound for a second.



NOW FOR THE BRIDGE:


do the verse bass tabs.... and do this in the rhythm guitar

EFFECTS HERE: some distortion
NOTE: on the first part... the rhthm guitar and the base will play at the same time

e|-----------------------------------------------|
B|---7~~~~~~-------------------------------------|
G|-----------------------------------------------|

OptimusPrime

Toegevoegd door OptimusPrime op zo 01 dec, 2002 9:41 am

Auteur: ?
Componist: ?
Uitgever: ?
Taal: Engels

Reacties

CommonCrawl [Bot]

Volg Muzikum