Roger McGuinn

Roger McGuinn
Mr Tambourine Man (Guitar tab)

#

Date: Wed, 03 Dec 1997 20:04:56 -0600 (CST)
From: rickl1@ix.netcom.com
Subject: Tab: Mr Tambourine Man The Byrds transcribed by Roger
McGuinn

mcguinn@ix.netcom.com

The Byrds Mr. Tambourine Man written by Bob Dylan


Standard Tuning

\ = down beat
Sequence:

Intro
Chorus
Verse 1
Chorus
Outro


INTRO

E--------------------|--------------------|--------------------|---------|
B--------------------|---3----------------|--------------------|---3-----|
G----2----4--2--0----|--------------------|---2----4--2--0-----|---------|
D-0----0---------4-2-|-2----2---0----2----|0----0----------4-2-|-2----2--|
A--------------------|--------------------|--------------------|---------|
E--------------------|--------------------|--------------------|---------|
\ / \ / \ / \ / \ / \ / \ /


Chorus
G A D G
E---3----------------|--0-----------------|--2-----------------|--3------|
B---0-----0----------|--2-----------------|--3-----------------|--0------|
G---0-----0----------|--2-----------------|--2-----------------|--0------|
D---0----------------|--2-----------------|--0-----------------|--0------|
A---2----------------|--0---------0-------|--0-----------------|--2------|
E---3---------3------|--0-----------------|--0-----------------|--3------|
\ / \ / \ / \ / \ / \ / \ /
Hey Mister Tambourine Man play a song for me


G D D G G G A A
E-----------2------|----2-------3-----|-------------------|------------0--|
B-----------3------|----3-------0-----|-------------------|------------232|
G-----------2------|----2-------0-----|-------------------|------------2--|
D-----------0------|----0-------0-----|-------------------|------------2--|
A------------------|------------2-----|-------------------|--0---------0--|
E-3----------------|------------3-----|-------------------|------------0--|
\ / \ / \ / \ / \ / \ / \ / \ /
I'm not sleepy and there ain't no place I'm goin' to


G A D G
E---3----------------|--0-----------------|--2-----------------|--3------|
B---0-----0----------|--2-----------------|--3-----------------|--0------|
G---0-----0----------|--2-----------------|--2-----------------|--0------|
D---0----------------|--2-----------------|--0-----------------|--0------|
A---2----------------|--0---------0-------|--0-----------------|--2------|
E---3---------3------|--0-----------------|--0-----------------|--3------|
\ / \ / \ / \ / \ / \ / \ /
Hey Mister Tambourine Man play a song for me


G D D G G G A D
E-----------2------|----2-------3-----|-------------------|------------2--|
B-----------3------|----3-------0-----|-------------------|------------3--|
G-----------2------|----2-------0-----|-------------------|------------2--|
D-----------0------|----0-------0-----|-------------------|------------0--|
A------------------|------------2-----|-------------------|--0---------0--|
E-3----------------|------------3-----|-------------------|------------0--|
\ / \ / \ / \ / \ / \ / \ / \ /
In the Jingle Jangle morning I'll come followin' you


Verse
G A D G
E---3----------------|--0-----------------|--2-----------------|--3------|
B---0-----0----------|--2-----------------|--3-----------------|--0------|
G---0-----0----------|--2-----------------|--2-----------------|--0------|
D---0----------------|--2-----------------|--0-----------------|--0------|
A---2----------------|--0---------0-------|--0-----------------|--2------|
E---3---------3------|--0-----------------|--0-----------------|--3------|
\ / \ / \ / \ / \ / \ / \ /
Take me for a trip upon your magic swirlin' ship


G D G G D G
E---3-------2------|-----------3------|--3--------2-------|-----3---------|
B---0-------3------|-----------0------|--0--------3-------|-----0---------|
G---0-------2------|-----------0------|--0--------2-------|-----0---------|
D---0-------0------|-----------0------|--0--------0-------|-----0---------|
A---2--------------|-----------2------|--2----------------|-----2---------|
E---3--------------|-----------3------|--3----------------|-----3---------|
\ / \ / \ / \ / \ / \ / \ / \ /
All my senses have been stripped and my hands can't feel to grip


G D G G D G
E---3-------2------|-----------3------|--3--------2-------|-----3---------|
B---0-------3------|-----------0------|--0--------3-------|-----0---------|
G---0-------2------|-----------0------|--0--------2-------|-----0---------|
D---0-------0------|-----------0------|--0--------0-------|-----0---------|
A---2--------------|-----------2------|--2----------------|-----2---------|
E---3--------------|-----------3------|--3----------------|-----3---------|
\ / \ / \ / \ / \ / \ / \ / \ /
And my toes too numb to step wait only for my boot heels to be

A A
E---0--------------|---0--------------|
B---2--------------|---3--------------|
G---2--------------|---2--------------|
D---2--------------|---2--------------|
A---0--------------|---0--------------|
E---0--------------|---0--------------|
\ / \ / \ / \ /
wanderin'

G A D G
E---3----------------|--0-----------------|--2-----------------|--3------|
B---0-----0----------|--2-----------------|--3-----------------|--0------|
G---0-----0----------|--2-----------------|--2-----------------|--0------|
D---0----------------|--2-----------------|--0-----------------|--0------|
A---2----------------|--0---------0-------|--0-----------------|--2------|
E---3---------3------|--0-----------------|--0-----------------|--3------|
\ / \ / \ / \ / \ / \ / \ /
I'm ready to go anywhere I'm ready for to fade


G D G G D G
E---3-------2------|-----------3------|--3--------2-------|-----3---------|
B---0-------3------|-----------0------|--0--------3-------|-----0---------|
G---0-------2------|-----------0------|--0--------2-------|-----0---------|
D---0-------0------|-----------0------|--0--------0-------|-----0---------|
A---2--------------|-----------2------|--2----------------|-----2---------|
E---3--------------|-----------3------|--3----------------|-----3---------|
\ / \ / \ / \ / \ / \ / \ / \ /
On to my own parade cast your dancin't spell my way


G A
E---3--------------|--0---------------|
B---0--------------|--2---------------|
G---0--------------|--2---------------|
D---0--------------|--2---------------|
A---2--------------|--0---------------|
E---3--------------|--0---------------|
\ / \ / \ / \ /
I promise to go under it

Chorus
G A D G
E---3----------------|--0-----------------|--2-----------------|--3------|
B---0-----0----------|--2-----------------|--3-----------------|--0------|
G---0-----0----------|--2-----------------|--2-----------------|--0------|
D---0----------------|--2-----------------|--0-----------------|--0------|
A---2----------------|--0---------0-------|--0-----------------|--2------|
E---3---------3------|--0-----------------|--0-----------------|--3------|
\ / \ / \ / \ / \ / \ / \ /
Hey Mister Tambourine Man play a song for me


G D D G G G A A
E-----------2------|----2-------3-----|-------------------|------------0--|
B-----------3------|----3-------0-----|-------------------|------------232|
G-----------2------|----2-------0-----|-------------------|------------2--|
D-----------0------|----0-------0-----|-------------------|------------2--|
A------------------|------------2-----|-------------------|--0---------0--|
E-3----------------|------------3-----|-------------------|------------0--|
\ / \ / \ / \ / \ / \ / \ / \ /
I'm not sleepy and there ain't no place I'm goin' to


G A D G
E---3----------------|--0-----------------|--2-----------------|--3------|
B---0-----0----------|--2-----------------|--3-----------------|--0------|
G---0-----0----------|--2-----------------|--2-----------------|--0------|
D---0----------------|--2-----------------|--0-----------------|--0------|
A---2----------------|--0---------0-------|--0-----------------|--2------|
E---3---------3------|--0-----------------|--0-----------------|--3------|
\ / \ / \ / \ / \ / \ / \ /
Hey Mister Tambourine Man play a song for me


G D D G G G A D
E-----------2------|----2-------3-----|-------------------|------------2--|
B-----------3------|----3-------0-----|-------------------|------------3--|
G-----------2------|----2-------0-----|-------------------|------------2--|
D-----------0------|----0-------0-----|-------------------|------------0--|
A------------------|------------2-----|-------------------|--0---------0--|
E-3----------------|------------3-----|-------------------|------------0--|
\ / \ / \ / \ / \ / \ / \ / \ /
In the Jingle Jangle morning I'll come followin' you

OUTRO

E--------------------|--------------------|--------------------|---------|
B--------------------|---3----------------|--------------------|---3-----|
G----2----4--2--0----|--------------------|---2----4--2--0-----|---------|
D-0----0---------4-2-|-2----2---0----2----|0----0----------4-2-|-2----2--|
A--------------------|--------------------|--------------------|---------|
E--------------------|--------------------|--------------------|---------|
\ / \ / \ / \ / \ / \ / \ /

E--------------------|--------------------|--------------------|---------|
B--------------------|---3----------------|--------------------|---3-----|
G----2----4--2--0----|--------------------|---2----4--2--0-----|---------|
D-0----0---------4-2-|-2----2---0----2----|0----0----------4-2-|-2----2--|
A--------------------|--------------------|--------------------|---------|
E--------------------|--------------------|--------------------|---------|
\ / \ / \ / \ / \ / \ / \ /
FADE

All the best ..... Roger

G A D G
Hey Mister Tambourine Man play a song for me
G D D G A
I'm not sleepy and there ain't no place I'm goin' to
G A D G
Hey Mister Tambourine Man play a song for me
G D G A D
In the Jingle Jangle morning I'll come followin' you
G A D G
Take me for a trip upon your magic swirlin' ship
G D G D G
All my senses have been stripped and my hands can't feel to grip
D G D G A
And my toes too numb to step wait only for my boot heels to be wanderin'
G A D G
I'm ready to go anywhere I'm ready for to fade
G D G D G
On to my own parade cast your dancin't spell my way
G A
I promise to go under it
G A D G
Hey Mister Tambourine Man play a song for me
G D D G G G A
I'm not sleepy and there ain't no place I'm goin' to
G A D G
Hey Mister Tambourine Man play a song for me
G D G A D
In the Jingle Jangle morning I'll come followin' you

OptimusPrime

Toegevoegd door OptimusPrime op zo 01 dec, 2002 2:17 pm

Auteur: Bob Dylan
Componist: Bob Dylan
Uitgever: Columbia
Uitgegeven in: 1991
Taal: Engels
Beschikbaar op: Electric Ladyland 1991 (2015)

Reacties

CommonCrawl [Bot]

Volg Muzikum