Pop Will Eat Itself

Pop Will Eat Itself
Harry Dean Stanton (Bass tab)

[===============================================]
Harry Dean Stanton, by Pop Will Eat Itself
[===============================================]

..Tabbed out by my bass teacher and I.

I love this song.. You'll need a six string bass to play this though, I'm
sorry to say. ( correction: to play this easily.. it can be played on a
four or five string, but not how I've tabbed it ) I hope this is right,
someone who really has a six string should try it out and tell me. :)


Part A:

G:|---------------------| This is the very beginning,
D:|---------------------| before the chanting stuff
A:|---------------------| starts. Repeat as much as
E:|---------------------| necessary.
D:|-1/3-3-3--1/3-3-3--6-|
B:|---------------------|


Part B:

G:|--------------------------| Here is what's played during
D:|--------------------------| the weird chanting..
A:|-3-33---3-333-------------|
E:|--------------------------|
D:|--------------3-33-3-33-3-|
B:|--------------------------|


Part C:

G:|-----------------------------| Finally, here is the part that starts
D:|-----------------------------| after 'in 1991 I got glassed..'
A:|-3-33x--1-3-6-6--------------|
E:|-----------------------------|
D:|----------------5--5-5-3-5---|
B:|---------------------------0-|


That's not the whole song, but it's the essential bits.. stick them together,
and there you are.

written out by noah, email to image@cyberwar.com with comments,
letters of appreciation, and other tabs. :)

" Never been in love with no one, sign up,
join the programme, within me, within you "

OptimusPrime

Toegevoegd door OptimusPrime op do 14 aug, 2003 6:03 pm

Auteur: ?
Componist: ?
Uitgever: ?
Taal: Engels

Reacties

CommonCrawl [Bot]

Volg Muzikum