Elastica

Elastica
Smile (Bass tab)

Band: Elastica
Song: Smile
Album: Elastica (1995)
Bassist: Annie Holland
Tabber: Holly the Indie Fish

Here's one with a tricky rhythm. Nice and punky.

Guitar then drums then...

verse bit
G|--------------------------------------------------
D|--------------------------------------------------
A|------------------------5-5-5-3-3-3---------------
E|-5-5-0-5-5-0-5-5-0-5-5--------------0-5-5-0-5-5-0-

end of verse
G|----------------------------
D|----------------------------
A|-5-5-5-3-3-3----------------
E|--------------0-5-5-0-5-5-0-

chorus
G|---------------------------------------
D|---------------------------------------
A|---------------------------------------
E|-3-3-3-3-3-3-3-3-0-5-3-5-5-5-5-5-5-5-5-

other chorus bit
G|-----------------
D|-----------------
A|-----------------
E|-3-3-3-3-3-3-3-3-

verse bit x4
end of verse
chorus
verse bit x2
end of verse
chorus x2
other chorus bit
verse bit x2
end of verse
chorus x2
other chorus bit
then i think it ends with

E|-5-5-5-5-5-5

its practically correct, the chorus may be little more complicated
but i play this and it works.

OptimusPrime

Toegevoegd door OptimusPrime op zo 01 dec, 2002 9:44 am

Auteur: ?
Componist: ?
Uitgever: ?
Taal: Engels

Reacties

CommonCrawl [Bot]

Volg Muzikum