Elastica

Elastica
See That Animal (Bass tab)

See That Animal
from the album "Elastica"
transcribed by Luis A-S (topman1@aol.com)



main riff- play in beginning and end and after verse
G --------------------0---------4--2--0-------------------
D ----------0--2--4-----4----------------4--0----------- x2
A ---2--4-----------------------------------------4--2----
E -----------------------------------------------------------

verse
G ------------------------------------------------------------
D -------------------------------------------------------------
A -------------------------------------------------------------
E --7--7-777----5-5-555----3-3-333------22-222--


thats the whole song.
-Luis A-S (topman1@aol.com)

OptimusPrime

Toegevoegd door OptimusPrime op zo 01 dec, 2002 9:44 am

Auteur: ?
Componist: ?
Uitgever: ?
Taal: Engels

Reacties

CommonCrawl [Bot]

Volg Muzikum