Elastica

Elastica
Never There (Bass tab)

From: "Mike Ackley"
Date: Fri, 19 Jan 1996 11:22:13 GMT0BST
Subject: BTAB "Never Here" by "Elastica"




Never Here By Elastica
========================

Pretty simple. Annie only uses one string! Good song though.....


Verse:

G|-----------------|-----------------|-------------------------|
D|-----------------|-----------------|-------------------------|
A|-----------------|-----------------|-------------------------|
E|-7-7-7-7-7-7-7-7-|-5-5-5-5-5-5-5-5-\-12-12-12-12-12-12-12-12-|

G|-------------------------|
D|-------------------------|
A|-------------------------|
E|-10-10-10-10-10-10-10-10-|


This goes on forever. Eventually it gets to the chorusy bit:

Chorusy bit:

G|-----------------|-----------------|-----------------|
D|-----------------|-----------------|-----------------|
A|-----------------|-----------------|-----------------|
E|-9-9-9-9-9-9-9-9-|-9-9-9-9-9-9-9-7-|-5-5-5-5-5-5-5-5-|

G|-----------------|-----------------|-----------------|
D|-----------------|-----------------|-----------------|
A|-------------7---|-----------------|-----------------|
E|-5-5-5-5-5-5---5-|-2-2-2-2-2-2-2-2-|-2-2-2-2-2-2-2-2-|

G|--------------------|
D|--------------------|
A|--------------------|
E|-\8-8-8\10-10-10\12-|

repeat but play the last bar twice the second time.


Mike
(phsmaa@leeds.ac.uk)

OptimusPrime

Toegevoegd door OptimusPrime op zo 01 dec, 2002 9:44 am

Auteur: ?
Componist: ?
Uitgever: ?
Taal: Engels

Reacties

CommonCrawl [Bot]

Volg Muzikum