Dweezil Zappa

Dweezil Zappa
Loser (Guitar tab)

#
From: Chuckzoso@aol.com
Date: Tue, 13 Jun 1995 17:34:20 -0400
Subject: Loser byDweezilZappa (redone)

I redid this so it actually fits on the page

LOSER
by Z (on Shampoohorn)

repeat
E--3--2-2-2--0h2-2-2--0h2-2-2----1--0-0-0--0h1-1-1--0h1-1-1--
B--3--3-3-3--3---3-2--3---3-3----3--3-3-3--3---3-3--3---3-3--
G--2--2-2-2--2---2-2--2---2-2----2--2-2-2--2---2-2--2---2-2--
D--------------------------------------------------------------------------
A--------------------------------------------------------------------------
E--------------------------------------------------------------------------

E-------0---------3--
B-------3---------3--
G-------2---------2--
D-----0--------0----- repeat
A--3--------3---------
E----------------------

chorus
E---------------------------------------------------------------------------
B-----------------------------------------------------------------------------

G----------------------------------------------------------------------------
D--5/7--7-7-----3p0----5-7-7-5-----3p0-------5/7-7-7-3p0----
A--3/5--5-5-3h5--------3-5-5-3-3p0-----3p0---3/5-5-5-----3p0----
E-----------------------------------------------------------------------------


E-------------------------------
B-------------------------------
G-------------------------------
D--5/7-7------------------------
A--3/5-5-5-5-5--5-5-5\3---------
E--------3-3-3--3-3-3\1---------
drum solo
then...
E-----------------------------------------------
B------------------------------------------------
G-----------------------------------------2-----
D------------------------5-3--5-3--5---3---0-
A--3-5-3-5--3-5-5---------------------------
E------------------------------------
-Charlie

OptimusPrime

Toegevoegd door OptimusPrime op do 13 dec, 2001 12:25 am

Auteur: ?
Componist: ?
Uitgever: ?
Taal: Engels

Reacties

CommonCrawl [Bot]

Volg Muzikum