Dweezil Zappa

Dweezil Zappa
Kidz Cereal (Guitar tab)

#
From: Chuckzoso@aol.com
Date: Tue, 13 Jun 1995 17:32:33 -0400
Subject: Kidz_Cereal byDweezilZappa(redo)

This is redone so it will print properly.
KIDZ CEREAL
by Z

tabbed by Troy Crews

E--------------------------------------------------------
B--------------------------------------------------------
G--------------------------------------------------------
D-------7-7----------------------------------------------
A--7-7--5-5--7-7--2-2---7-7-5-5-2-2---7-7-5-5-2-2--------
E--5-5-------5-5--0-0---5-5-3-3-0-0---5-5-3-3-0-0--------

verse
E------------
B------------ he plays around with these
G------------ chords for a while
D--7-7--9-9--
A--5-5--7-7--
E------------

prechorus
E----------------------------------------------------
B-------------------------------------------------------------------
G-------------------------------------------------------------------
D----------------------------------7--------------------------------
A--4---------------7---------------5-5-5-5-5-5-5-5-7---------------2-
E--2-2-2-2-2-2-2-2-5-5-5-5-5-5-5-5-----------------5-5-5-5-5-5-5-5-0-

then play A5, G5, A5- a la "You Really Got Me"- Chorus
A5:
D----- D--7--
A--7-- A--5--
E--5- - E-----

-Charlie

OptimusPrime

Toegevoegd door OptimusPrime op do 13 dec, 2001 12:25 am

Auteur: ?
Componist: ?
Uitgever: ?
Taal: Engels

Reacties

CommonCrawl [Bot]

Volg Muzikum