Fugazi

Fugazi
Merchandise (Bass tab)

Artist:fugazi
Song:merchandise
Album:repeater + 3 songs
email at optimusprime19@hotmail.com

they are all tens and twelves etc not ones and opens!

into x 1
G:|----------------|----------------|----------------|----------------|
D:|----------------|----------------|----------------|----------------|
A:|101010----------|101010----------|101010----------|101010----------|
E:|----------------|----------------|----------------|----------------|

part 1
G:|----------------|----------------|----------------|----------------|
D:|----------------|----------------|----------------|101010--101010--|
A:|101010--111111--|121212--121212--|7-7-7---7-7-7---|----------------|
E:|----------------|----------------|----------------|----------------|

part 2
G:|----------------|----------------|----------------|----------------|
D:|----------------|----------------|----------------|----------------|
A:|9-9-9-9-9-9-9-9-|9-9-9-9-9-9-1212|9-9-9-9-9-9-9-9-|5-5-5-5-5-5-5-5-|
E:|----------------|----------------|----------------|----------------|

part 3
G:|----------------|-------55-------|
D:|------5-------55|------5---------|
A:|5-h-7---5-h-7---|5-h-7-----------|
E:|----------------|----------------| may be a bit off

part 4
G:|----------------|----------------|----------------|----------------|
D:|----------------|----------------|----------------|10--10--10--10--|
A:|101010--111111--|121212----------|7-7-7-----------|----------------|
E:|----------------|----------------|----------------|----------------|

order
intro x 1
part 1 x 6
part 2 x 2
part 1 x 6
part 2 x 2
rest
part 3 x 8
part 4 x 4
part 2 x 4

OptimusPrime

Toegevoegd door OptimusPrime op zo 01 dec, 2002 9:49 am

Auteur: ?
Componist: ?
Uitgever: ?
Taal: Engels
Beschikbaar op: First Demo (2014)

Reacties

CommonCrawl [Bot]

Volg Muzikum