Fugazi

Fugazi
Shut The Door (Bass tab)

ARTIST: FUGAZI
SONG: SHUT THE DOOR
ALBUM: REPEATER
TAB BY: JARED
(THEMEFROMAJACKYL@YAHOO.COM)
MAIN GROOVES

G-------------------------||----------------------||
D-5---------------5---5-7-||-5------------/7-5----||
A---5---5--5-7--7---7-----||---5---5--5-7-------7-||
E-----5-------------------||-----5----------------||

G------------------------||-----------------------||
D-5----------------5-----||-5---------------------||
A---5---5--5-7--7-----7--||---5---5--5-7\---------||
E-----5------------------||-----5-----------------||

These four grooves make up the verses, they are thrown in,
in many different orders so just play along to get it

CHORUS BREAKDOWN
G--------------------------||---------------------|
D-4---4-----------------6--||-----------------5-7-|
A---7---7-4---4-7-4-7-4----||-----7-5-----5-7-----|
E--------------------------||-5-7-----5-7---------|

The riff before the ending is the same as the fourth verse groove
tabbed out above

ENDING

G-----------------| This riff is played the first, third,
D-----------------| and fourth time. The second time play
A-----7-5-----5-7-| the breakdown riff
E-5-7-----5-7-----|

XX1134XX

OptimusPrime

Toegevoegd door OptimusPrime op zo 01 dec, 2002 9:49 am

Auteur: ?
Componist: ?
Uitgever: ?
Taal: Engels

Reacties

CommonCrawl [Bot]

Volg Muzikum