Fugazi

Fugazi
Reclamation (Bass tab)

ARTIST: FUGAZI
SONG: RECLAMATION
ALBUM: STEADY DIET OF NOTHING
TAB BY: JARED
(THEMEFROMAJACKY@YAHOO.COM)
VERSE

G--------------------------|
D----------------7-8-7-----|
A-----------------------7--|
E-3-0-0-2-0-0-6------------|

CHORUS

G-----------------------------------|
D-----------------------------------|
A-(6)-7--7\11-----7-7------------9--|
E-------------(0)-(0)-(0)-9-7-(0)---|

CHORUS BREAK

G----------------------------| This is played during
D---------------11-12-11-12--| the last chorus, it's
A-(6)-7--7\11-9--------------| thrown in during each
E----------------------------| third phrase, or something?

This song has a lot of ghost notes and stuff that is randomly
played but hopefully this will give you a general idea.
I don't usually tab out songs that I'm not sure of, but
hopefully this will give someone else a place to start
and they'll get stuff I didn't.
XX1134XX

OptimusPrime

Toegevoegd door OptimusPrime op zo 01 dec, 2002 9:49 am

Auteur: ?
Componist: ?
Uitgever: ?
Taal: Engels

Reacties

CommonCrawl [Bot]

Volg Muzikum