Fugazi

Fugazi
Margin Walker (Bass tab)

Margin Walker
Fugazi

Verse - This plays right until the chorus part OR you can hit an open A to
help the transition.
G| --------11--------|
D| ------8----9------|
A| -7s9----------9---|
E| ------------------|

Chorus -
G| ----------------------------------------------|
D| ----------------------------------------------|
A| -9-9-9-9-9-4-4-4-4-4-2-2-2-2-2-2-2-2-2-2-2-2--|
E| ----------------------------------------------|

"You want the motherload, I swing the payload..."
G| -----------------------|
D| --------------------0--|
A| ---------0-2-----------|
E| -0----2------0-0-0-----|
Play this part 8 times, then back to chorus, end on open A.

this is an edited version of the version by BadFrancis@aol.com

deeyouembe@godisdead.com

OptimusPrime

Toegevoegd door OptimusPrime op zo 01 dec, 2002 9:49 am

Auteur: ?
Componist: ?
Uitgever: ?
Taal: Engels

Reacties

CommonCrawl [Bot]

Volg Muzikum