Fugazi

Fugazi
Lusty Scripps (Bass tab)

Song: Lusty Scripps
Band: Fugazi
Album: Instrument Sdtrk

My friend Robert and I both figured this out the same day,
but not together. This song is Track #2 on the newest CD.
It is just such a chillin' and groovin' track. Joe Lalley
first does a little warm-up at the beginng (0:01) and it
is just the first half of the Verse. The Riff is only a
different tempo of the Verse and there are two little cool
variations in there at different time marks. (I put time
marks so if you have the CD you can study those points.)
Just remember to keep playing and to switch tempos now
and then, it just repeats. Anyways, I can't shut up.


Verse
G:----------------------------|---------------------
D:----------------------------|----------------5-7--
A:---------3-3-3-2-0-2-0-2-0--|--------3-3-3-2------
E:--5-55-3--------------------|-5-55-3--------------

Riff
G:--------------------------|---------------------
D:--------------------------|----------------5-7--
A:-------3-3-3-2-0-2-0-2-0--|--------3-3-3-2------
E:--55-3--------------------|-5-55-3--------------

Variation 1 (2:05)
G:--------------------------|-----------------
D:--------------------------|----------555-7--
A:---------3-3-3-2-0-2-0-2--|-----------------
E:--5-55-3------------------|-3-0-5-----------

Variation 2 (3:16)
G:--------------------------|---------------------
D:--------------------------|---------------------
A:---------3-3-3-2-0-2-0-2--|--------6/7-3-0-2-0--
E:--5-55-3------------------|-5-55-3--------------

End Note
G:-----
D:-----
A:-----
E:--5--

Tabbed by Logan Hugh

OptimusPrime

Toegevoegd door OptimusPrime op zo 01 dec, 2002 9:49 am

Auteur: ?
Componist: ?
Uitgever: ?
Taal: Engels

Reacties

CommonCrawl [Bot]

Volg Muzikum