Fugazi

Fugazi
Bed For The Scraping (Bass tab)

ARTIST: FUGAZI
SONG: BED FOR THE SCRAPING
ALBUM: RED MEDICINE
CORRECTION OF: DEEYOUEMBE@GODISDEAD.COM
TAB BY: JARED
(THEMEFROMAJACKYL@YAHOO.COM)
VERSE

G------------------------------|
D--------5-3--3-3-3------------|
A------------------(0)-3-3-3-0-|
E-3-3-3------------------------|

BREAK CHORUS
3x
G------------|--------| |--------------|
D--------3-5-|--------| |--------------|
A------------|--5--3--| |-0-0-3---3\5--|
E-3--3-3-----|--------| |--------------|

The end riff is the same as the verse, it is hard
to tell but if you listen closely you'll hear it.
This song doesn't really have a structure to it
but this should cover all the riffs
XX1134XX

OptimusPrime

Toegevoegd door OptimusPrime op zo 01 dec, 2002 9:49 am

Auteur: ?
Componist: ?
Uitgever: ?
Taal: Engels

Reacties

CommonCrawl [Bot]

Volg Muzikum