Fugazi

Fugazi
Public Witness Program (Guitar tab)

#
#






Date: Sat, 30 Nov 1996 20:08:25 EST
From: "Mr. Coin Operated"


------------------------------------------------------------------------
"Public Witness Program" - FUGAZI - from "in on the kill taker"
------------------------------------------------------------------------
Transcribed By:Kent Randell KRANDELL@NMU.edu
"http://vm.nmu.edu/~krandell/http/lcl.html"
My new band manRay plays this song. Here is how we play

First Chord: (played a whole bunch of times)
(Eb)
-----
--8--
--8--
--8--
--6--
-----
Verse riff:
e|-----------------------------3--3--3--------------------------------|
B|-----------------------------3--3--3--------------------------------|
G|-----------------------------0--0--0--------------------------------|
D|-----------------------------0--0--0--------------------------------|
A|--------------------------------------------------------------------|
E|--3--3--6-6-6-6--8-8-8-3-----3--3--3--------------------------------|

Fill
e|------------------------------------------------------------------|
B|------------------------------------------------------------------|
G|---7-7-7--7-7-7------10-10-10-10-12-12-12---12--------------------|
D|---7-7-7--7-7-7------10-10-10-10-12-12-12---12--------------------|
A|---5-5-5--5-5-5------8--8--8--8--10-10-10---10--------------------|
E|---5-5-5--5-5-5------8--8--8--8--10-10-10-------------------------|
Verse riff again.
Fill again.

Chorus:

(G) (Bbm) (D) (F)
e|--------------------------------------------------------------------|
B|-3-3-3-3-3-3-3-3-3--2-2-2-2-2-2-2-2--3-3-3-3-3-3-3-3--1-1-1-1-1-1-1-|
G|-0-0-0-0-0-0-0-0-0--3-3-3-3-3-3-3-3--2-2-2-2-2-2-2-2----------------|
D|-0-0-0-0-0-0-0-0-0-------------------0-0-0-0-0-0-0-0--3-3-3-3-3-3-3-|
A|------------------------------------------------------3-3-3-3-3-3-3-|
E|-3-3-3-3-3-3-3-3-3------------------------------------1-1-1-1-1-1-1-|

SOlo - Chorus chord progression
if you can't figure out the 3 notes in the solo you don't need to know

Bridge back to chorus:
Eb / D / F

CHORUS

play an Eb chord than end.

OptimusPrime

Toegevoegd door OptimusPrime op zo 01 dec, 2002 9:49 am

Auteur: ?
Componist: ?
Uitgever: ?
Taal: Engels

Reacties

CommonCrawl [Bot]

Volg Muzikum