Fuel

Fuel
Shimmer (Bass tab)

Song: Shimmer
Artist: Fuel
Tabbed: Rhys Stephens - raz@gsat.net.au

This is only my second song I have tabbed and I am sure it's pretty right.
It is very different and not so basic compared to how other's have tabbed it.

Come In at 1:01

Verse 1: x 4
g /-----------------------------\
d ||.---------------------------.||
a ||.-0-3-0-3-0-3-0-5-0-5-7-5-3-.||
e \-----------------------------/

Chorus: x 2
g /-----------------\
d ||.---------------.||
a ||.-3-3-5-7-7-7-5-.||
e \-----------------/

Back to Verse 1 x2

Then this:
g /---------------------------------------------------------\
d ||.-------------------------------------------------------.||
a ||.------------2-3-3---5-7-7---0-0-2-3-3--------------2-3-.||
e \--0-0-3-5-5------------------------------0-0-3-5-5-------/

Drums and Guitar Only

g /---------------\
d ||.-------------.||
a ||.-/5-55-55-55-.||
e \---------------/

Chorus with fills x 2

g /--------------------------------4--------\
d ||.--------------------------5-7-(9)--7-5-.||
a ||.-3-3-5-7-7-7-5----3-3-5-7--------------.||
e \-----------------------------------------/

Solo x 4

g /----9-7-9--\
d ||.---------.||
a ||.-5-------.||
e \-----------/

Back to Chorus with fills x 4

g /--------------\
d ||.------------.||
a ||.-5--------3-.||
e \--------------/

OptimusPrime

Toegevoegd door OptimusPrime op zo 01 dec, 2002 9:49 am

Auteur: ?
Componist: ?
Uitgever: ?
Taal: Engels

Reacties

CommonCrawl [Bot]

Volg Muzikum