Fuel

Fuel
Shimmer Ver 2 (Guitar tab)

E------------------------------------
B---5--5--5--5--5--7--7--7--7--8--7--
G---0--0--0--0--0--0--0--0--0--0--0--
D---5--5--5--5--5--7--7--7--7--7--7--
A---3--3--3--3--3--5--5--5--5--5--5--
E------------------------------------

E---------------------------
B---5--5--7--8--8--8--7--7--
G---0--0--0--0--0--0--0--0--
D---5--5--7--9--9--9--7--7--
A---3--3--5--7--7--7--5--5--
E---------------------------


E---2--5--4--4--4--4--4--
B---1--1--1--1--1--1--1--
G---2--2--2--2--2--2--2--
D------------------------
A------------------------
E------------------------

OptimusPrime

Toegevoegd door OptimusPrime op zo 01 dec, 2002 9:49 am

Auteur: ?
Componist: ?
Uitgever: ?

Reacties

CommonCrawl [Bot]

Volg Muzikum