Fuel

Fuel
Innocent Ver 2 (Guitar tab)

Fuel
Innocent
Something Like Human album

*Standard Tuning

Hey,I found this tab in my guitar one magazine, so i know it is right.
It is exactly how fuel plays it. The strumming pattern is tricky at
first, but its easy after you figure it out. Just listen to the cd
for the timing. Enjoy!

Intro and Verse
Em Dadd4 C
e---0---0--0-0-0---0/0-/0------0---0---0-----0-
b---8---8--8-8-8---8/10/8------7---7---5-----5-
g---0---0--0-0-0---0/0-/0------0---0---0-----0-
d---9---9--9-9-9---9/11/9------7---7---5-----5-
a---7---7--7-7-7---7/9-/7------5---5---3-----3-
E---0----------0-------------------------------


Chorus
Cadd9 D/F# G D/F#
e-----3-----------2----3----2--
b-----3-----------3----3----3--
g-----0-X6--------2----0----2-- X2 then
d-----2-----------0----0----0--
a-----3-----------x----2----x--
E-----------------2----3----2--
1."All our lives get complicated.."
2."All those colors long since faded.."
3."While confessions not yet stated.."

Cadd9 Asus4 Aadd9 A5 Cmaj7 D
e-----3---------0---0-----------0----0----------------0------------
b-----3---------0---0-----------0----0----------------0------------
g-----0-X6------7---6-----------9----9---------------11------------
d-----2---------x---7----------10---10---------------12------------
a-----3---------7---7----7-----10---10------10/12----12------------
E---------------5---5----5------8----8-------8/10----10------------
1."Never armed our souls for what the future would hold.."
2."Never were we told we'd be bought and sold.."
3."Never did we know what the future would hold,or that.."

Solo
e----------------------------------------------------------17-------
b----8--------8\7-----7\-/7-----8-------8\7---------15--------------
g---------7--------------------------7------------------------------
d-------------------------------------------------------------------
a-------------------------------------------------------------------
E-------------------------------------------------------------------

Solo continued
e---17b-17-16v-------14/16-----17v-------17b--17--14v---------------
b-------------------------------------------------------------------
g-------------------------------------------------------------------
d-------------------------------------------------------------------
a-------------------------------------------------------------------
E-------------------------------------------------------------------

Outro
Em Dadd4 C
e---0---0--0-0-0---0/0-/0------0---0---0-----0-------(0)--
b---8---8--8-8-8---8/10/8------7---7---5-----5-------(8)--
g---0---0--0-0-0---0/0-/0------0---0---0-----0-------(0)--
d---9---9--9-9-9---9/11/9------7---7---5-----5-------(9)--
a---7---7--7-7-7---7/9-/7------5---5---3-----3-------(7)--
E---0----------0-------------------------------------(0)--
*let ring out

Well, thats it.
The ending of the last chorus is a little different, but its not too
hard to figure out. Just play the Cmaj7 and D chords for longer
period. If you have any questions, let me know.

Kris Haavig
sexyindian00@hotmail.com

OptimusPrime

Toegevoegd door OptimusPrime op zo 01 dec, 2002 9:49 am

Auteur: ?
Componist: ?
Uitgever: ?
Taal: Engels

Reacties

CommonCrawl [Bot]

Volg Muzikum