Fuel

Fuel
Bittersweet (Bass tab)

BTAB: Bittersweet
Artist: Fuel
Album: Sunburned
Author: Rattman (jratt0@hotmail.com)

**Padrino's Bass Tab Exclusive!**

Intro/Bridge:
G----------------------------------------------------------------------
D----------------------------------------------------------------------
A-3-3-3-3-0h3-3-5-5-5-0h5-0h5-5/7-7-7-7/9/10\9\7-----------------------
E------------------------------------------------8-8-8-8-8-8-8-8-8-8-8-

Chorus: (also played w/ no singing after intro)
G-------------------------------------
D-------------------------------------
A---------------3-3-3-3-3-(3h5-5-5p3)-
E-0-0-0-0-3-3-3-----------------------

Verse:
Play hard/and stacatto.
G----------------------
D----------------------
A---------3-3-3-(3h5)--
E-0-0-3-3--------------

"and the enemy..." and "and its bittersweet..."
G-------
D-------
A-0-1-2-
E-------

Taken from Padrino's Bass Tab Archive: http://members.xoom.com/jszalma/

OptimusPrime

Toegevoegd door OptimusPrime op zo 01 dec, 2002 9:49 am

Auteur: ?
Componist: ?
Uitgever: ?
Taal: Engels

Reacties

CommonCrawl [Bot]

Volg Muzikum