Fuel

Fuel
Hemmorage Ver 3 (Guitar tab)

Artist: Fuel
Song: Hemmorrage (In My Hands)
Tabbed by: John Leadman


It was kinda hard to tab, there's a lot of strange
lead guitar that's hard to tab, but the basic chords should be
fine, I think they're definitely correct. This song sounds
really good on acoustic guitar. I did this in a hurry so there
might be some errors. In the choruses you can also play power
chords if you think it sounds better, G5 (355xxx) instead of
G, D5 (x577xx) instead of D, and A5 (x022xx) instead of A.
I just use the normal chords. Enjoy!!


CHORDS:


B5 (x244xx) Bm*/A (x04030) A (x02220) F# (244322)
A5 (x022xx) Bm*/G (3x4030) G (320033)
E5 (022xxx) Em (022000) D (xx0232)
Bm* (x24030) Dsus2 (xx0230) F#m (244222)





INTRO:

B5 A5 E5

(The intro also sounds good on acoustic with these chords
'Bm* Asus2 Em' Bm* (x24430) Asus2 (x02200) Em (022000)


Here's how you play the picking in the VERSES:

Bm* Bm*/A Bm*/G Bm*/A
E|-----------0--------------0---------------0--------------0--------|
B|---------3---3----------3---3-----------3---3----------3---3------|
G|-------0-------0------0-------0-------0-------0------0-------0----|
D|-----4--------------4-----------4---4--------------4-----------4--|
A|---2-------------0------------------------------0-----------------|
E|----------------------------------3-------------------------------|

VERSE 1: [play with tab above]
--------
Bm* Bm*/A Bm*/G Bm*/A
Memories are just where you laid them

Bm* Bm*/A Bm*/G Bm*/A
Dragging waters 'til the depths give up their dead

Bm* Bm*/A Bm*/G Bm*/A
What did you expect to find? Was it something you left behind?

Bm* Bm*/A Bm*/G Bm*/A
Don't you remember everything I said when I said


PRE-CHORUS:

Em Dsus2 A
Don't fall away

Em
And leave me to myself

Dsus2 A
Don't fall away

And leave love bleeding


CHORUS:

G
In my hands

D A
In my hands again

F#m G
Leave love bleeding in my hands

D
In my hands

F#
Love lies bleeding


Bm* Bm*/A Bm*/G Bm*/A
Bm* Bm*/A Bm*/G Bm*/A


VERSE 2: [play like VERSE 1]

Oh hold me now, I feel contagious
Am I the only place that you've left to go?
She cries that life is like some movie in black and white
Dead actors, vacant lies, over and over and over again she cries


PRE-CHORUS:

Em Dsus2 A
Don't fall away

Em
And leave me to myself

Dsus2 A
Don't fall away

F#m
And leave love bleeding


CHORUS:

G
In my hands

D A
In my hands again

F#m G
Leave love bleeding in my hands

D
In my hands

F#
Love lies bleeding


Here's the tab for the BRIDGE:

E|-------------------------------------------------------
B|-------------------------------------------------------
G|-------------------------------------------------------
D|-------------------------------------------------------
A|--------0---2---0---2---4---5---4b5r4---5---7---9---2--
E|---3---------------------------------------------------

E--------------------| b = bend note up
B--------------------| r = release bend
G--------------------|
D--------------------|
A--4---4-4--4-----4--|
E--2---2-2--2-----2--|

BRIDGE: [play with tab above]

And I wanted
You turned away
You don't remember
But I do
You never even tried


SOLO:

This is not exact, there's some real sweet up sound on the guitar and
the last part of the solo is played by two guitars but this is as
close as I could get.


E|-14------------14----14------------------------14-------14-----14---
B|--------12-------12----12-----15--14--10--12-------12-----12-----12-
G|--------------------------------------------------------------------
D|--------------------------------------------------------------------
A|--------------------------------------------------------------------
E|--------------------------------------------------------------------

E------12-----12----------14-----------14----------14----------14-----
B-10-------10--------15-------15--14-------14--12------12--14------14-
G---------------------------------------------------------------------
D---------------------------------------------------------------------
A---------------------------------------------------------------------
E---------------------------------------------------------------------

E----------------------------15--14--|
B--12---10---15--17--17b19-----------|
G------------------------------------|
D------------------------------------|
A------------------------------------|
E------------------------------------|



PRE-CHORUS:

Em Dsus2 A
Don't fall away

Em
And leave me to myself

Dsus2 A
Don't fall away

F#m
And leave love bleeding


CHORUS:

G
In my hands

D A
In my hands again

F#m G
Leave love bleeding in my hands

D A
In my hands again

F#m G
Leave love bleeding in my hands

D A F#m G D A F#m
In my hands again ooooohhh



OUTRO: [This isn't exact, but pretty much correct]

G D A F#m G D A F#m
E|-----------------------------------------------------------------
B|-----------------------------------------------------------------
G|--6-7-7--6--7-7-6-------6-----6--6-7-7--6--7-7--6-----6------6---
D|-------------------7-7-----7-----------------------7----7-----7--
A|-----------------------------------------------------------------
E|-----------------------------------------------------------------

G D A F#m G D A
E-----------------------------------------------|
B-----------------------------------------------|
G---6-7-7--6--7---6------6-----6-7-7--6-7---6---|
D-------------------7------7--------------------|
A-----------------------------------------------|
E-----------------------------------------------|

OptimusPrime

Toegevoegd door OptimusPrime op zo 01 dec, 2002 9:49 am

Auteur: ?
Componist: ?
Uitgever: ?
Taal: Engels

Reacties

CommonCrawl [Bot]

Volg Muzikum