Big Soul

Big Soul
Burning Up The Freeway (Guitar tab)

Date: Tue, 01 Jan 1980 02:11:41 +0100
From: Stiphane
Subject: b/big_soul/burning_up_the_freeway.tab

Burning up the Freeway
----------------------
Big Soul / Love Crazy

(Kelleth Chinn)

Transcribed by Stephane Francois (alain.francois@hol.fr), the famous Big
Soul fan.


E ------------------------------------------
B ------------------------------------------
G ----------2--0----------------2--0--------
D -2--2--2--2--0--2----2--2--2--2--0--------
A -2--2--2--0-----2----2--2--2--0-----------
E -0--0--3--------0----0--0--3--------------

My life is a dream How could I complain ? (...)

Chorus :

B A
E ----------------------------------------------------
B --4--4--4--4--4--4--4--4--2--2--2--2----------------
G --4--4--4--4--4--4--4--4--2--2--2--2----------------
D --4--4--4--4--4--4--4--4--2--2--2--2----------------
A --2--2--2--2--2--2--2--2--0--0--0--0----------------
E ----------------------------------------------------
Hey Hey Hey Hey Hey Hey... Burning up the freeway

Here are the lyrics:

My life is a dream
how could I complain ?
But when my exit came up I passed it anyway
Got plenty of money
a nice familly
I'm driving so fast i can't even see

Hey Hey
Hey Hey
Hey Hey
I'm burning up the freeway

My wife is beautiful
Blows the guys away
But after hello hone there's nothing else to say
I must be slipping fast
Can't take anymore
My eye's are bloodshot and my foot's on the floor

Hey Hey
Hey Hey
Hey Hey
I'm burning up the freeway


If you're a Big Soul fan, you can write me !!!!
I'm searching for the lyrics of the first album...

Good luck !

----------------------
| Steph |
| alain.francois@hol.fr|
----------------------

OptimusPrime

Toegevoegd door OptimusPrime op ma 19 nov, 2001 9:50 am

Auteur: ?
Componist: ?
Uitgever: ?
Taal: Engels

Reacties

CommonCrawl [Bot]

Volg Muzikum