Irving Berlin

Irving Berlin
Whatll I Do (Guitar tab)

Date: Tue, 08 Jun 1999 18:33:03 -0700
From: David
Subject: b/berlin_irving/whatll_i_do.tab

What'll I Do (Irving Berlin)

Tablature from David Rabanus
(david@wpos2.physik.uni-wuppertal.de)

This tablature I figured out myself and it is kind of simple to
play. The melody uses mostly the tones of the chords that you are
fretting anyway. The simplicity of the music underlines the
tristesse that comes with the lyrics. Have fun with it! (I
didn't figure out any intro or final part. That's up to you)


E||-------------------||---------------------|--------------------|
B||-------------------||--------1----1-------|-------1----1-------|
G||-------------------||*--0----0----0-------|--1----1----1-------|
D||-------------0--2--||*-------2----2-------|-------3----3-------|
A||----------3--------||--------3----3----3--|-----------------3--|
E||-------------------||---------------------|--------------------|


--------------------|--------------------|--------------------|
-------1----1-------|-------3----3-------|-------1----1-------|
--0----0----0----2--|-------1----1----0--|-------0----0-------|
-------2----2-------|--3----3----3-------|--2----2----2----3--|
-------3----3-------|--------------------|-------3----3-------|
--------------------|--------------------|--------------------|


______________________

|1.
---------------------|---------------------|----------------------||
-------3-------------|-------1-------------|----------------------||
-------4-------------|-------0-------------|-------4-------------*||
-------3-------2-----|-------2-------------|-------3-------0--2--*||
--5----5----5-----5--|--3------------------|-------5----3---------||
---------------------|------------0--1--2--|--3-------------------||

_____________________
|2.
---------------------|--------------------|-------1----1-------|
-------1-------------|--1----1----1-------|--3----3----3-------|
-------3-------0--2--|-------2----2-------|-------2----2-------|
-------2----3--------|-------3----3----3--|-------0----0----3--|
-------3-------------|--------------------|--------------------|
--3------------------|--------------------|--------------------|


--------------------|--------------------|--------------------|
--1----1----1-------|--3----3----3----1--|-------1----1-------|
-------2----2-------|-------1----1-------|--0----0----0-------|
-------3----3----3--|-------3----3-------|-------2----2----2--|
--------------------|-------1----1-------|-------3----3-------|
------------1-------|--------------------|--------------------|


--------------------|-----------------|---------------------|
-------2----2-------|-------3----3----|-------3-------------|
--2----0----0-------|-------5----5----|-------4-------------|
-------2----2----2--|-------4----4----|-------3-------0--2--|
--------------------|--5----5----5----|------------3--------|
--------------------|-----------------|--3------------------|


--------------------|--------------------|--------------------|
-------1----1-------|-------1----1-------|-------1----1-------|
--0----0----0-------|--1----1----1-------|--0----0----0----2--|
-------2----2-------|-------3----3-------|-------2----2-------|
-------3----3----3--|-----------------3--|-------3----3-------|
--------------------|--------------------|--------------------|


--------------------|--------------------|---------------------|
-------3----3-------|-------1----1-------|-------3-------------|
-------1----1----0--|-------0----0-------|-------4-------------|
--3----3----3-------|--2----2----2----3--|-------3-------2-----|
--------------------|-------3----3-------|--5----5----5-----5--|
--------------------|--------------------|---------------------|


-------3----0----|---------------||
-------1----1----|--1------------||
-------0----0----|--0------------||
-------2----2----|--2------------||
--3---------3----|--3------------||
-----------------|---------------||

OptimusPrime

Toegevoegd door OptimusPrime op zo 18 nov, 2001 11:14 pm

Auteur: ?
Componist: ?
Uitgever: ?
Taal: Engels

Reacties

CommonCrawl [Bot]

Volg Muzikum