Benediction

Benediction
Artefacted (Guitar chord)

#
Subject: benediction/artefacted-spit_forth.tab
Date: Thu, 4 Jan 1996 19:27:14 +0100 (MET)
From: W Martin Brnovjak


> BENEDICTION "Artefacted - Spit Forth" guitar tab
>
> Off the CD "Transcend the Rubicon" 93
>
> Tabbed by W Martin e-mail : brnovjak@phil.muni.cz
>
> Okay, here are the rhythm figures for the above introduced piece.
> If you spot any mistake or have something to add, you're welcome
> to e-mail me. I'd be especially thankful for the lyrics as they
> are not in the CD booklet.
> Well, I did not include the palmuting and the timing is probably
> anything but correct, so you'll have to check the recording.
> Anyway, I hope you'll find this helpful and ...errr... here we
> go...
>
> fig.1
> -----------------------------------------------------------------
> -----------------------------------------------------------------
> -----------------------------------------------------------------
> -----------------------------------------------------------------
> -6-7-3-3-2---6-7-3-2-542---6-7-3333-2---6-7-3-2-542--------------
> -4-5-1-1-0---4-5-1-0-320---4-5-1111-0---4-5-1-0-320--------------
>
> fig.1a x2
> -----------------------------------------------------------------
> -----------------------------------------------------------------
> -----------------------------------------------------------------
> -----------------------------------------------------------------
> -----------------------------------------------------------------
> -4-5-11111111-000000000000---4444-5555-111111-00-33-22-000000----
>
> fig.1 w/ vocals
> fig.1b x2
> -----------------------------------------------------------------
> -----------------------------------------------------------------
> -----------------------------------------------------------------
> -----------------------------------------------------------------
> -6-7-3-3---------------------------------------------------------
> -4-5-1-1-1111--0-0-0000-0-0-0000-4-4-5555-1-1-11-0-3-2-0-00000000
>
> fig.1
> fig.2 x2
> -----------------------------------------------------------------
> -----------------------------------------------------------------
> -----------------------------------------------------------------
> ------------------------------------------------------7-7---7----
> -7-5-3-2-------3-3-----7-7------3-3-3-3---------3-3-5-5-5-555-7-3
> -5-3-1-0-00000-1-1-3-3-5-5-5555-1-1-1-1-00-00-0-----3---------5-1
>
> fig. 3 x4
> -----------------------------------------------------------------
> -----------------------------------------------------------------
> -----------------------------------------------------------------
> ---------4-1-------------tr.-------------------------------------
> -2-2-2-2-2-1-------------2^3-------------------------------------
> -0-0-0-0-----0-1-2-2-2-2-----------------------------------------
>
> fig.2 x2
> fig.3 x4
> refrain part x5
> -------------------------------------------------------------------
> -------------------------------------------------------------------
> -------------------------------------------------------------------
> -----4---6-----------------4---6-----------------------------------
> -----2-3-4--4-4------------2-4-4-44-4-3----------------------------
> -0-0---1----2-2--1-1--0-00---2------2-1----------------------------
>
> fig.4 x4
> -------------------------------------------------------------------
> -------------------------------------------------------------------
> -------------------------------------------------------------------
> ------------4------3--7--6-----------------------------------------
> -2------4-3-222-2--1--5--4-44444--7-6-4-------5-3------------------
> -0-0000-2-1-----------------------5-4-2-22222-3-1------------------
>
> fig.5 x4
> -------------------------------------------------------------------
> -------------------------------------------------------------------
> -------------------------------------------------------------------
> --------------5-5-4-4--------------4-4-3-3----------------------------
> -5-5-5--4--5----------4-4-4--3--4----------7-7----7-7----8-8----8-8---
> -------------------------------------------5-5555-5-5555-6-6666-6-6666
>
> fig.4 x4
> fig.5 x4
> fig.6
> -------------------------------------------------------------------
> -------------------------------------------------------------------
> -------------------------------------------------------------------
> ----------------3------------------3---3---------------------------
> -2-5-3-4--2-5-3-1--2-5-3-4--2-5-3--1-111---------------------------
> -0-3-1-2--0-3-1----0-3-1-2--0-3-1----------------------------------
>
> fig.7 x2
> -------------------------------------------------------------------
> -------------------------------------------------------------------
> -------------------------------------------------------------------
> ------------------------3---3-------------------------------3---3--
> -2---5-3-4---4--2---5-3-1-111-2----5-3-4---4------2-----5-3-1-111--
> -0-0-3-1-2-222--0-0-3-1-------0-00-3-1-2-222--0-0-0-0-0-3-1--------
>
> fig. 6 x2 \ w/ solo
> fig. 7 /
> fig. 4 x4
> fig. 5 x4
> fig. 8 x4 outro
> ------------------------------------------------------- -----------
> ------------------------------------------------------- -----------
> ------------------------------------------------------- -----------
> 15--8-----------------------------3-4--------4-5------- ----2------
> 13--6--8-------------7----------------44444------55555- --5-2------
> -------6-6666666666--5-5555555555---------------------- ----0------
>
>
> That's all, folks. I'd appreciate to see some Edge of Sanity,
> Unleashed, Pestilence, Cemetary, Bathory, Venom,....
> TTTHHHRRRRRAAAAASSSHHH!!!!!!!!!!!!!!!!!!!!!!!!!!!!!!!!!!!!!!!!!!!!

OptimusPrime

Toegevoegd door OptimusPrime op zo 18 nov, 2001 11:14 pm

Auteur: ?
Componist: ?
Uitgever: ?
Taal: Engels

Reacties

CommonCrawl [Bot]

Volg Muzikum