Eric B. & Rakim

Eric B. & Rakim
Paid In Full (Bass tab)

------------------------
Paid in Full
------------------------
from Eric B. & Rakim album "Paid in Full"
tab by Matt Clark, Matt.Clark@umit.maine.edu



Bass
|------------------------------------------------------------------------------|
|--------------------------------------------------------1---------------------|
|-----------------------1--1--0--1-----0-1--3--3--3-3------3-1-----------------|
|-1--1--1-1---1--4--1------------------------------------------4-3-1--1--0--1--|

|------------------------------------------------------------------------------|
|------------------------------------------------------------------------------|
|-3-6-3------------------------------------------------------------------------|
|------------------------------------------------------------------------------|
-These last 3 notes in the riff actually sound one octave lower.


A similar sounding bass line was used at the end of the Rob Base song "Make it Hot"

OptimusPrime

Toegevoegd door OptimusPrime op zo 01 dec, 2002 9:41 am

Auteur: ?
Componist: ?
Uitgever: ?
Taal: Engels

Reacties

CommonCrawl [Bot]

Volg Muzikum