Eskimo Joe

Eskimo Joe
Turn Up Your Stereo (Bass tab)

FTH80:G D A E ; Generated by Fast Tab, do not erase
====================
>From : Matt.Fritz
Artist : Eskimoe Joe
Bass Performance: Turn Up Your Stereo
Strings: E ,A ,D ,G



INTRO
G -------------------------------------------------------------------------------
D -------------------------------------------------------------------------------
A --7--7--7--7--7--7--7--7--7--7--7--7--7--7--7--7--7--7--7--7--7--7--7--7--7--7-
E -------------------------------------------------------------------------------



G --------------------------------------------------
D --------------------------------------------------
A --7--7--7--7--7--7--7--7--7--7--7--7--7--7--------
E --------------------------------------------------
AFTER INTRO PLAY THIS (WENT HE START'S TO SING)
G -------------------------------------------------------------------------------
D -------------------------------------------------------------------------------
A -----7--7--7--7--7--7--7--7--2--2--2--2--2--2--2--2--------------------------7-
E -----------------------------------------------------5--5--5--5--5--5--5--5----

G ---------------------------
D ---------------------------
A --7--7--7--7--7--7--7------
E ---------------------------


VERSES
G----------------------------------------------------------------
D----------------------------------------------------------------
A ---0--4--5--0---4--5--0--4--5--0--7--7--7--7--7--7--7--7-------
E --------------5---------5--------------------------------------


CHOURS
G ------------------------------------------------------------------------------
D ------------------------------------------------------------------------------
A -----7--7--7--7--7--7--7--7--2--2--2--2--2--2--2--2---------------------------
E ----------------------------------------------------5--5--5--5--5--5--5--5--5-

G ---------------------------
D ---------------------------
A --7--7--7--7--7--7--7--7---
E ---------------------------


INTERLUDE

G -------------------------------------------------------------------------------------
D -------------------------------------------------------------------------------------
A-7--7--7--7--7--7--7--7--2--2--2--2--2--2--2--2--------------------------7--7--7--7--7
E -------------------------------------------------5--5--5--5--5--5--5--5--------------

G --------
D --------
A -7--7--7
E --------

OptimusPrime

Toegevoegd door OptimusPrime op zo 01 dec, 2002 9:39 am

Auteur: ?
Componist: ?
Uitgever: ?
Taal: Engels

Reacties

CommonCrawl [Bot]

Volg Muzikum