Eskimo Joe

Eskimo Joe
Wake Up (Guitar tab)

Wake Up
E S K I M O J O E
Tabbed By Aaron Bridgeman (rokken@sicness.net)

http://bogans.arecool.net

KEY:
/ = slide up
\ = slide down
~ = sustain
h = hammer on
p = pull off

INTRO:
e|----------------------|
B|---7---7---7---7------|
G|-7---7---7---7--- ...-|
D|----------------------|
A|----------------------|
E|----------------------|

VERSE:
e|------------------------------|
B|---7---------3---------5------|
G|-7--- x8 --3--- x4 --5--- x4 -|
D|------------------------------|
A|------------------------------|
E|------------------------------|

PRE-CHORUS:
e|-------------------------------------|
B|-------------------------------------|
G|-7-7-7-7-7-7-7-7-12-12-12----3-3-3-3-|
D|-7-7-7-7-7-7-7-7-12-12-12----3-3-3-3-|
A|-5-5-5-5-5-5-5-5-10-10-10----1-1-1-1-|
E|-5-5-5-5-5-5-5-5-10-10-10----1-1-1-1-|

CHORUS LEAD:
e|----------------|
B|-7~~~~~-5~~-3~~-|
G|----------------|
D|----------------|
A|----------------|
E|----------------|
I haven't heard the song enough to figger out the rhythm
The chords are probably easy to figger out anyway

SOLO:
e|------------------------------------------|
B|-/7~\3~/7~\3~~--0p3h0p3h0-0h3-3/5\3-3-3~~-|
G|------------------------------------------|
D|------------------------------------------|
A|------------------------------------------|
E|------------------------------------------|
Tinker around that line.

OptimusPrime

Toegevoegd door OptimusPrime op zo 01 dec, 2002 9:39 am

Auteur: ?
Componist: ?
Uitgever: ?
Taal: Engels

Reacties

CommonCrawl [Bot]

Volg Muzikum