Flickerstick

Flickerstick
Smile Ver 4 (Guitar tab)

Decky's Flickerstick - Smile Tab



"Smile", by Flickerstick  Chords Used

G C G6 C
E--3----0----0----0----
B--3----1----0----1----
G--0----0----0----0----
D--0----2----0----2----
A--2----3----2----3----
E--3----x----3----x----

These chords are used as the Rhythm section throughout the entire song.

FIG 1

x7 x2 x7 x7 x7
E----|----|----|----|--------------------
B�15-|-17-|-13-|-12-|-10-----------------
G----|----|----|----|--------------------
D----|----|----|----|--------------------
A----|----|----|----|--------------------
E----|----|----|----|--------------------

FIG 2

E------------------------------------|
B--12-10----10-12-10-------12h15p12~~|
G--------12----------12h14-----------| x3
D------------------------------------|
A------------------------------------|
E------------------------------------|

Fig 3

E-------12-15-12-------------------------------------|
B-12-15----------15-12-------------10-12p10�12p10-12-|
G----------------------14-12h14-12-------------------|
D----------------------------------------------------|
A----------------------------------------------------|
E----------------------------------------------------|

Fig 4

E------------------------------------|
B--12-10----10-12-10-------12h13p12~~|
G--------12----------12h14-----------|
D------------------------------------|
A------------------------------------|
E------------------------------------|


Repeat fig 2 and 4

Fig 5

E-15----------------------------------|
B----15/13-13-13-13p12-12p10----------|
G----------------------------12-------|
D-------------------------------------|
A-------------------------------------|
E-------------------------------------|


Fig 4, Fig 2 then Fig 4 x2 (listen to the Track to in order to
find out timing)

Then..

FIG 6 (outro)

E-15--------------------------------
B----15-13-12----10-----------------
G-------------12----12--------------
D-----------------------------------
A-----------------------------------
E-----------------------------------
Decky

OptimusPrime

Toegevoegd door OptimusPrime op zo 01 dec, 2002 9:55 am

Auteur: ?
Componist: ?
Uitgever: ?
Taal: Engels

Reacties

CommonCrawl [Bot]

Volg Muzikum