Flickerstick

Flickerstick
Smile Ver 2 (Guitar tab)

"Smile", by Flickerstick
As interpreted by Patrick Southern (PSUKCAT13@aol.com)

VERSE (acoustic)

G C G6 C

E-----------------3-----3--3------0-----0--0---------------0-----0--0--------0
B-----------------3-----3--3------1-----1--1---------------0-----0--0--------1
G-----------------0-----0--0------0-----0--0---------------0-----0--0--------0
D-----------------0-----0--0------2-----2--2---------------0-----0--0--------2
A-----------------2-----3--3------3-----3--3---------------2-----2--2--------3
E-----------------3-----3--3------X-----X--X---------------3-----3--3--------X

Your ship is high and I don't know if we'll make it dow - n

But I'm gonna try to slip inside the mind of a clow - n

Fol - low me thinkin I can save the - m

Fol - low me thinkin I can turn her frow - n


CHORUS (repeat once)

E-----------------------------------------------------------------------------
B---15---15-15-15---17--17--17--17--13--13--13---13--13--13--13/12--12--12--12
G-----------------------------------------------------------------------------
D-----------------------------------------------------------------------------
A-----------------------------------------------------------------------------
E-----------------------------------------------------------------------------

E-----------------------------------
B---12--12--12--10--10--10----10--10
G-----------------------------------
D-----------------------------------
A-----------------------------------
E-----------------------------------

BUILDUP

E-----------------------------------------------------------------------------
B---15--15--15--15--15--17--17--17--17--13--13--13--13--13--13--13--13--12--12
G-----------------------------------------------------------------------------
D-----------------------------------------------------------------------------
A-----------------------------------------------------------------------------
E-----------------------------------------------------------------------------

E-----------------------------------------------------------------------------
B---12--12--12--12--12--12--13--13--13--13--13--13--13--13--------------------
G-----------------------------------------------------------------------------
D-----------------------------------------------------------------------------
A-----------------------------------------------------------------------------
E-----------------------------------------------------------------------------

MAIN RIFF (electric, w/distortion and flange)

E--------------------------------------------------------------------10-------
B---12-10----10-12--10----10--12-13-12---12-10----10-12--10----10-12----12----
G---------12-----------12----------------------12-----------12----------------
D-----------------------------------------------------------------------------
A-----------------------------------------------------------------------------
E-----------------------------------------------------------------------------

E----------------------------------------------12-15-12-----------------------
B---12-10----10-12--10----10--12-13-12---12-15----------15-12------------10h12
G---------12-----------12-------------------------------------14p12-14p12-----
D-----------------------------------------------------------------------------
A-----------------------------------------------------------------------------
E-----------------------------------------------------------------------------

E--------
B---10h12
G--------
D--------
A--------
E--------

REPEAT VERSE PART FOR BRIDGE (electric, w/distortion and flange)

THEN, REPEAT MAIN RIFF

OUTRO (repeat twice)

E---15----------------------------------------
B-----15--13-12---10(third time hold this note briefly)
G--------------12----12(third time pick twice quickly to end)
D----------------------------------------------
A----------------------------------------------
E----------------------------------------------

LYRICS:

Verse:
Your ship is high
And I don't know
If we'll make it down
But I'm gonna try
To slip inside
The mind of a clown
Follow me
Thinking I can save them
Follow me
Thinking I can turn her frown...

Chorus:
Into a smile
Into a smile

Buildup:
Whoo-ooo, whoo-ooo
Whoo-ooo, whoo-ooo
Whoo-ooo, whoo-ooo
Whoo-ooo, whoo-ooo

Climax (at main riff):
Into a smile

Bridge:
Your ship is high
And I don't know
If we'll make it down
But I'm gonna try
To slip inside
The mind of a clown

Repeat Main Riff:Outro:
Yeah, yeah,
Yeah, yeah,
Yeah, yeah,
Yeah
Into a smile
Into a smile

Send questions, comments, fan mail, and death threats to PSUKCAT13@aol.com

OptimusPrime

Toegevoegd door OptimusPrime op zo 01 dec, 2002 9:54 am

Auteur: ?
Componist: ?
Uitgever: ?
Taal: Engels

Reacties

CommonCrawl [Bot]

Volg Muzikum