Flickerstick

Flickerstick
Lift (Guitar chord)

Lift version 2

transcripted by Johnny G

intro and verses

G --------------------
D ----14-12-----------
A -12------14---------
E ------------10--12--

louder part:

G -----------------------------
D -----------------------------
A -------7-7-7--5-5-5--2-2-2---
E -5-5-5-----------------------

not done with this yet. but this is the correct riff to the song.
I will be back with the rest

OptimusPrime

Toegevoegd door OptimusPrime op zo 01 dec, 2002 9:54 am

Auteur: ?
Componist: ?
Uitgever: ?
Taal: Engels

Reacties

CommonCrawl [Bot]

Volg Muzikum