Flickerstick

Flickerstick
Beatiful (Guitar tab)

"Beautiful", by Flickerstick
this is corrrect from watching performances

Standard tuning:

Intro:

E----0---0---0---0-----------------|
B----------------------------------|
G-1-2-1-2-1-2-1-2------------------|
D----------------------------------|
A----------------------------------|
E----------------------------------|

Verse (and intro):


E------12-12-12-12------9-9-9-9--------------------------------------|
B-9-9-9-----------9-9-9--------9-9-9-12-12-9------9-9-9-12-12-9------|
G--------------------------------------------11-9--------------11-9--|
D--------------------------------------------------------------------|
A--------------------------------------------------------------------|
E--------------------------------------------------------------------|

Chorus:

E 0 0 0
B 0 0 0
G 6 4 2
D 6 4 2
A 4 2 0
E x x x

...these are just the chords. It doesn't include the strum pattern or how
many times you play each chord.

==============================================================

OptimusPrime

Toegevoegd door OptimusPrime op zo 01 dec, 2002 9:54 am

Auteur: ?
Componist: ?
Uitgever: ?
Taal: Engels

Reacties

CommonCrawl [Bot]

Volg Muzikum