Flickerstick

Flickerstick
Beautiful Ver 4 (Guitar tab)

#This file is the author's own work and represents their interpretation #


#font. #


Date: Wed, 23 July 2001 03:05:28
From: "Jason Cahill"
Subject: f/flickerstick/beautiful.tab

"Beautiful" - Flickerstick
Welcoming Home The Astronauts

Tuning: Standard



Intro
E :----------------------------------------------|
B :---------5------------------------------------| x4
G :-----4-5--------------------------------------|
D :----------------------------------------------|
A :----------------------------------------------|
E :----------------------------------------------|


E :-------------12------------------9------------|
B :--9-9-9--------------9-9-9--------------------|
G :----------------------------------------------|
D :----------------------------------------------|
A :----------------------------------------------|
E :----------------------------------------------|


E :-----------------------------------R----------|
B :--9-9-9-------12-------9-7-5-------E----------|
G :-----------------------------------P----------|
D :-----------------------------------E----------|
A :-----------------------------------A----------|
E :-----------------------------------T----------|

Then Strum These Chords:

E :----------------------------------------------|
B :---6--------4-------2-------------------------|
G :---6--------4-------2-------------------------|
D :---4--------2---------------------------------|
A :----------------------------------------------|
E :----------------------------------------------|

OptimusPrime

Toegevoegd door OptimusPrime op zo 01 dec, 2002 9:54 am

Auteur: ?
Componist: ?
Uitgever: ?
Taal: Engels

Reacties

CommonCrawl [Bot]

Volg Muzikum