Flickerstick

Flickerstick
Beautiful Ver 3 (Guitar tab)

Here is a little bit of the song Beautiful. I haven�t worked with it much, but this is what I could get out of it. The tuning is just regular. The song is by Flickerstick. They are a great band and you�ll be hearing a lot more of them soon--Duncan



Beginning intro
--------------0---------------0---------------------
-----------------------------------------------------
---1---2------------1----2-------------------------
-----------------------------------------------------
-----------------------------------------------------
-----------------------------------------------------

Solo

---------0--------------------------------------------------------------------
--------------------2-----------0----------------------0---------------------
-1-1-1-1---1-1-1-1----1-1-1-1-------1---------1-1-1-1-----1----------
---------------------------------------4--2-----------------4--2---------4--2-
------------------------------------------------------------------------------
------------------------------------------------------------------------------

Chords for the chorus

C# minor B major A major

This is all I have. I hope it helps.

OptimusPrime

Toegevoegd door OptimusPrime op zo 01 dec, 2002 9:54 am

Auteur: ?
Componist: ?
Uitgever: ?
Taal: Engels

Reacties

CommonCrawl [Bot]

Volg Muzikum